  0
SECTION
  2
HEADER
  9
$ACADVER
  1
AC1021
  9
$ACADMAINTVER
 70
    50
  9
$DWGCODEPAGE
  3
ANSI_936
  9
$LASTSAVEDBY
  1
Lenovo
  9
$INSBASE
 10
0.0
 20
0.0
 30
0.0
  9
$EXTMIN
 10
783.3366095326403
 20
-119.9996608104176
 30
-0.0000000349181948
  9
$EXTMAX
 10
828.9331156060395
 20
-85.52193116056333
 30
0.0000000814935747
  9
$LIMMIN
 10
0.0
 20
0.0
  9
$LIMMAX
 10
12.0
 20
9.0
  9
$ORTHOMODE
 70
     0
  9
$REGENMODE
 70
     1
  9
$FILLMODE
 70
     1
  9
$QTEXTMODE
 70
     0
  9
$MIRRTEXT
 70
     1
  9
$LTSCALE
 40
1.0
  9
$ATTMODE
 70
     1
  9
$TEXTSIZE
 40
0.2
  9
$TRACEWID
 40
0.05
  9
$TEXTSTYLE
  7
Standard
  9
$CLAYER
  8
0
  9
$CELTYPE
  6
ByLayer
  9
$CECOLOR
 62
   256
  9
$CELTSCALE
 40
1.0
  9
$DISPSILH
 70
     0
  9
$DIMSCALE
 40
1.0
  9
$DIMASZ
 40
0.18
  9
$DIMEXO
 40
0.0625
  9
$DIMDLI
 40
0.38
  9
$DIMRND
 40
0.0
  9
$DIMDLE
 40
0.0
  9
$DIMEXE
 40
0.18
  9
$DIMTP
 40
0.0
  9
$DIMTM
 40
0.0
  9
$DIMTXT
 40
0.18
  9
$DIMCEN
 40
0.09
  9
$DIMTSZ
 40
0.0
  9
$DIMTOL
 70
     0
  9
$DIMLIM
 70
     0
  9
$DIMTIH
 70
     1
  9
$DIMTOH
 70
     1
  9
$DIMSE1
 70
     0
  9
$DIMSE2
 70
     0
  9
$DIMTAD
 70
     0
  9
$DIMZIN
 70
     0
  9
$DIMBLK
  1

  9
$DIMASO
 70
     1
  9
$DIMSHO
 70
     1
  9
$DIMPOST
  1

  9
$DIMAPOST
  1

  9
$DIMALT
 70
     0
  9
$DIMALTD
 70
     2
  9
$DIMALTF
 40
25.4
  9
$DIMLFAC
 40
1.0
  9
$DIMTOFL
 70
     0
  9
$DIMTVP
 40
0.0
  9
$DIMTIX
 70
     0
  9
$DIMSOXD
 70
     0
  9
$DIMSAH
 70
     0
  9
$DIMBLK1
  1

  9
$DIMBLK2
  1

  9
$DIMSTYLE
  2
Standard
  9
$DIMCLRD
 70
     0
  9
$DIMCLRE
 70
     0
  9
$DIMCLRT
 70
     0
  9
$DIMTFAC
 40
1.0
  9
$DIMGAP
 40
0.09
  9
$DIMJUST
 70
     0
  9
$DIMSD1
 70
     0
  9
$DIMSD2
 70
     0
  9
$DIMTOLJ
 70
     1
  9
$DIMTZIN
 70
     0
  9
$DIMALTZ
 70
     0
  9
$DIMALTTZ
 70
     0
  9
$DIMUPT
 70
     0
  9
$DIMDEC
 70
     4
  9
$DIMTDEC
 70
     4
  9
$DIMALTU
 70
     2
  9
$DIMALTTD
 70
     2
  9
$DIMTXSTY
  7
Standard
  9
$DIMAUNIT
 70
     0
  9
$DIMADEC
 70
     0
  9
$DIMALTRND
 40
0.0
  9
$DIMAZIN
 70
     0
  9
$DIMDSEP
 70
    46
  9
$DIMATFIT
 70
     3
  9
$DIMFRAC
 70
     0
  9
$DIMLDRBLK
  1

  9
$DIMLUNIT
 70
     2
  9
$DIMLWD
 70
    -2
  9
$DIMLWE
 70
    -2
  9
$DIMTMOVE
 70
     0
  9
$DIMFXL
 40
1.0
  9
$DIMFXLON
 70
     0
  9
$DIMJOGANG
 40
0.7853981633974483
  9
$DIMTFILL
 70
     0
  9
$DIMTFILLCLR
 70
     0
  9
$DIMARCSYM
 70
     0
  9
$DIMLTYPE
  6

  9
$DIMLTEX1
  6

  9
$DIMLTEX2
  6

  9
$LUNITS
 70
     2
  9
$LUPREC
 70
     4
  9
$SKETCHINC
 40
0.1
  9
$FILLETRAD
 40
0.5
  9
$AUNITS
 70
     0
  9
$AUPREC
 70
     0
  9
$MENU
  1
.
  9
$ELEVATION
 40
0.0
  9
$PELEVATION
 40
0.0
  9
$THICKNESS
 40
0.0
  9
$LIMCHECK
 70
     0
  9
$CHAMFERA
 40
0.5
  9
$CHAMFERB
 40
0.5
  9
$CHAMFERC
 40
1.0
  9
$CHAMFERD
 40
0.0
  9
$SKPOLY
 70
     0
  9
$TDCREATE
 40
2456960.492535463
  9
$TDUCREATE
 40
2456960.159202130
  9
$TDUPDATE
 40
2457071.677610811
  9
$TDUUPDATE
 40
2457071.344277477
  9
$TDINDWG
 40
0.0056239236
  9
$TDUSRTIMER
 40
0.0056239236
  9
$USRTIMER
 70
     1
  9
$ANGBASE
 50
0.0
  9
$ANGDIR
 70
     0
  9
$PDMODE
 70
     0
  9
$PDSIZE
 40
0.0
  9
$PLINEWID
 40
0.0
  9
$SPLFRAME
 70
     0
  9
$SPLINETYPE
 70
     6
  9
$SPLINESEGS
 70
     8
  9
$HANDSEED
  5
18F
  9
$SURFTAB1
 70
     6
  9
$SURFTAB2
 70
     6
  9
$SURFTYPE
 70
     6
  9
$SURFU
 70
     6
  9
$SURFV
 70
     6
  9
$UCSBASE
  2

  9
$UCSNAME
  2

  9
$UCSORG
 10
0.0
 20
0.0
 30
0.0
  9
$UCSXDIR
 10
1.0
 20
0.0
 30
0.0
  9
$UCSYDIR
 10
0.0
 20
1.0
 30
0.0
  9
$UCSORTHOREF
  2

  9
$UCSORTHOVIEW
 70
     0
  9
$UCSORGTOP
 10
0.0
 20
0.0
 30
0.0
  9
$UCSORGBOTTOM
 10
0.0
 20
0.0
 30
0.0
  9
$UCSORGLEFT
 10
0.0
 20
0.0
 30
0.0
  9
$UCSORGRIGHT
 10
0.0
 20
0.0
 30
0.0
  9
$UCSORGFRONT
 10
0.0
 20
0.0
 30
0.0
  9
$UCSORGBACK
 10
0.0
 20
0.0
 30
0.0
  9
$PUCSBASE
  2

  9
$PUCSNAME
  2

  9
$PUCSORG
 10
0.0
 20
0.0
 30
0.0
  9
$PUCSXDIR
 10
1.0
 20
0.0
 30
0.0
  9
$PUCSYDIR
 10
0.0
 20
1.0
 30
0.0
  9
$PUCSORTHOREF
  2

  9
$PUCSORTHOVIEW
 70
     0
  9
$PUCSORGTOP
 10
0.0
 20
0.0
 30
0.0
  9
$PUCSORGBOTTOM
 10
0.0
 20
0.0
 30
0.0
  9
$PUCSORGLEFT
 10
0.0
 20
0.0
 30
0.0
  9
$PUCSORGRIGHT
 10
0.0
 20
0.0
 30
0.0
  9
$PUCSORGFRONT
 10
0.0
 20
0.0
 30
0.0
  9
$PUCSORGBACK
 10
0.0
 20
0.0
 30
0.0
  9
$USERI1
 70
     0
  9
$USERI2
 70
     0
  9
$USERI3
 70
     0
  9
$USERI4
 70
     0
  9
$USERI5
 70
     0
  9
$USERR1
 40
0.0
  9
$USERR2
 40
0.0
  9
$USERR3
 40
0.0
  9
$USERR4
 40
0.0
  9
$USERR5
 40
0.0
  9
$WORLDVIEW
 70
     1
  9
$SHADEDGE
 70
     3
  9
$SHADEDIF
 70
    70
  9
$TILEMODE
 70
     1
  9
$MAXACTVP
 70
    64
  9
$PINSBASE
 10
0.0
 20
0.0
 30
0.0
  9
$PLIMCHECK
 70
     0
  9
$PEXTMIN
 10
1.000000000000000E+20
 20
1.000000000000000E+20
 30
1.000000000000000E+20
  9
$PEXTMAX
 10
-1.000000000000000E+20
 20
-1.000000000000000E+20
 30
-1.000000000000000E+20
  9
$PLIMMIN
 10
0.0
 20
0.0
  9
$PLIMMAX
 10
12.0
 20
9.0
  9
$UNITMODE
 70
     0
  9
$VISRETAIN
 70
     1
  9
$PLINEGEN
 70
     0
  9
$PSLTSCALE
 70
     1
  9
$TREEDEPTH
 70
  3020
  9
$CMLSTYLE
  2
Standard
  9
$CMLJUST
 70
     0
  9
$CMLSCALE
 40
1.0
  9
$PROXYGRAPHICS
 70
     1
  9
$MEASUREMENT
 70
     0
  9
$CELWEIGHT
370
    -1
  9
$ENDCAPS
280
     0
  9
$JOINSTYLE
280
     0
  9
$LWDISPLAY
290
     0
  9
$INSUNITS
 70
     5
  9
$HYPERLINKBASE
  1

  9
$STYLESHEET
  1

  9
$XEDIT
290
     1
  9
$CEPSNTYPE
380
     0
  9
$PSTYLEMODE
290
     1
  9
$FINGERPRINTGUID
  2
{06580425-6EE1-473D-B367-C9E70205AC85}
  9
$VERSIONGUID
  2
{0AB8DA30-F781-4B0F-B038-E566D08FCE5F}
  9
$EXTNAMES
290
     1
  9
$PSVPSCALE
 40
0.0
  9
$OLESTARTUP
290
     0
  9
$SORTENTS
280
   127
  9
$INDEXCTL
280
     0
  9
$HIDETEXT
280
     1
  9
$XCLIPFRAME
290
     0
  9
$HALOGAP
280
     0
  9
$OBSCOLOR
 70
   257
  9
$OBSLTYPE
280
     0
  9
$INTERSECTIONDISPLAY
280
     0
  9
$INTERSECTIONCOLOR
 70
   257
  9
$DIMASSOC
280
     2
  9
$PROJECTNAME
  1

  9
$CAMERADISPLAY
290
     0
  9
$LENSLENGTH
 40
50.0
  9
$CAMERAHEIGHT
 40
0.0
  9
$STEPSPERSEC
 40
2.0
  9
$STEPSIZE
 40
6.0
  9
$3DDWFPREC
 40
2.0
  9
$PSOLWIDTH
 40
0.25
  9
$PSOLHEIGHT
 40
4.0
  9
$LOFTANG1
 40
1.570796326794896
  9
$LOFTANG2
 40
1.570796326794896
  9
$LOFTMAG1
 40
0.0
  9
$LOFTMAG2
 40
0.0
  9
$LOFTPARAM
 70
     7
  9
$LOFTNORMALS
280
     1
  9
$LATITUDE
 40
37.795
  9
$LONGITUDE
 40
-122.394
  9
$NORTHDIRECTION
 40
0.0
  9
$TIMEZONE
 70
 -8000
  9
$LIGHTGLYPHDISPLAY
280
     1
  9
$TILEMODELIGHTSYNCH
280
     1
  9
$CMATERIAL
347
95
  9
$SOLIDHIST
280
     1
  9
$SHOWHIST
280
     1
  9
$DWFFRAME
280
     2
  9
$DGNFRAME
280
     2
  9
$REALWORLDSCALE
290
     1
  9
$INTERFERECOLOR
 62
   256
  9
$INTERFEREOBJVS
345
33
  9
$INTERFEREVPVS
346
AD
  9
$CSHADOW
280
     0
  9
$SHADOWPLANELOCATION
 40
0.0
  0
ENDSEC
  0
SECTION
  2
CLASSES
  0
CLASS
  1
ACDBDICTIONARYWDFLT
  2
AcDbDictionaryWithDefault
  3
ObjectDBX Classes
 90
        0
 91
        1
280
     0
281
     0
  0
CLASS
  1
VISUALSTYLE
  2
AcDbVisualStyle
  3
ObjectDBX Classes
 90
     4095
 91
       26
280
     0
281
     0
  0
CLASS
  1
SCALE
  2
AcDbScale
  3
ObjectDBX Classes
 90
     1153
 91
       33
280
     0
281
     0
  0
CLASS
  1
MATERIAL
  2
AcDbMaterial
  3
ObjectDBX Classes
 90
     1153
 91
        3
280
     0
281
     0
  0
CLASS
  1
TABLESTYLE
  2
AcDbTableStyle
  3
ObjectDBX Classes
 90
     4095
 91
        1
280
     0
281
     0
  0
CLASS
  1
MLEADERSTYLE
  2
AcDbMLeaderStyle
  3
ACDB_MLEADERSTYLE_CLASS
 90
     4095
 91
        1
280
     0
281
     0
  0
CLASS
  1
DICTIONARYVAR
  2
AcDbDictionaryVar
  3
ObjectDBX Classes
 90
        0
 91
        5
280
     0
281
     0
  0
CLASS
  1
CELLSTYLEMAP
  2
AcDbCellStyleMap
  3
ObjectDBX Classes
 90
     1152
 91
        3
280
     0
281
     0
  0
ENDSEC
  0
SECTION
  2
TABLES
  0
TABLE
  2
VPORT
  5
8
330
0
100
AcDbSymbolTable
 70
     1
  0
VPORT
  5
29
330
8
100
AcDbSymbolTableRecord
100
AcDbViewportTableRecord
  2
*Active
 70
     0
 10
0.0
 20
0.0
 11
1.0
 21
1.0
 12
806.1348625693399
 22
-102.7607959854904
 13
0.0
 23
0.0
 14
0.5
 24
0.5
 15
0.5
 25
0.5
 16
0.0
 26
0.0
 36
1.0
 17
0.0
 27
0.0
 37
0.0
 40
34.88655648364701
 41
2.473267326732673
 42
50.0
 43
0.0
 44
0.0
 50
0.0
 51
0.0
 71
     0
 72
   100
 73
     1
 74
     3
 75
     0
 76
     0
 77
     0
 78
     0
281
     0
 65
     1
110
0.0
120
0.0
130
0.0
111
1.0
121
0.0
131
0.0
112
0.0
122
1.0
132
0.0
 79
     0
146
0.0
348
2F
 60
     3
 61
     5
292
     1
282
     1
141
0.0
142
0.0
 63
   250
421
  3355443
1001
ACAD_NAV_VCDISPLAY
1070
     3
  0
ENDTAB
  0
TABLE
  2
LTYPE
  5
5
330
0
100
AcDbSymbolTable
 70
     1
  0
LTYPE
  5
14
330
5
100
AcDbSymbolTableRecord
100
AcDbLinetypeTableRecord
  2
ByBlock
 70
     0
  3

 72
    65
 73
     0
 40
0.0
  0
LTYPE
  5
15
330
5
100
AcDbSymbolTableRecord
100
AcDbLinetypeTableRecord
  2
ByLayer
 70
     0
  3

 72
    65
 73
     0
 40
0.0
  0
LTYPE
  5
16
330
5
100
AcDbSymbolTableRecord
100
AcDbLinetypeTableRecord
  2
Continuous
 70
     0
  3
Solid line
 72
    65
 73
     0
 40
0.0
  0
ENDTAB
  0
TABLE
  2
LAYER
  5
2
102
{ACAD_XDICTIONARY
360
C2
102
}
330
0
100
AcDbSymbolTable
 70
     3
  0
LAYER
  5
10
102
{ACAD_XDICTIONARY
360
CD
102
}
330
2
100
AcDbSymbolTableRecord
100
AcDbLayerTableRecord
  2
0
 70
     0
 62
     7
  6
Continuous
370
    -3
390
F
347
A5
  0
LAYER
  5
5E
102
{ACAD_XDICTIONARY
360
CF
102
}
330
2
100
AcDbSymbolTableRecord
100
AcDbLayerTableRecord
  2
layer 1
 70
     0
 62
     7
  6
Continuous
370
    -3
390
F
347
A5
  0
LAYER
  5
BE
102
{ACAD_XDICTIONARY
360
BF
102
}
330
2
100
AcDbSymbolTableRecord
100
AcDbLayerTableRecord
  2
图层2
 70
     0
 62
     7
  6
Continuous
370
    -3
390
F
347
A5
  0
ENDTAB
  0
TABLE
  2
STYLE
  5
3
330
0
100
AcDbSymbolTable
 70
     2
  0
STYLE
  5
11
330
3
100
AcDbSymbolTableRecord
100
AcDbTextStyleTableRecord
  2
Standard
 70
     0
 40
0.0
 41
1.0
 50
0.0
 71
     0
 42
0.2
  3
txt
  4

  0
ENDTAB
  0
TABLE
  2
VIEW
  5
6
330
0
100
AcDbSymbolTable
 70
     0
  0
ENDTAB
  0
TABLE
  2
UCS
  5
7
330
0
100
AcDbSymbolTable
 70
     0
  0
ENDTAB
  0
TABLE
  2
APPID
  5
9
330
0
100
AcDbSymbolTable
 70
     6
  0
APPID
  5
12
330
9
100
AcDbSymbolTableRecord
100
AcDbRegAppTableRecord
  2
ACAD
 70
     0
  0
APPID
  5
5D
330
9
100
AcDbSymbolTableRecord
100
AcDbRegAppTableRecord
  2
ODA
 70
     0
  0
APPID
  5
C1
330
9
100
AcDbSymbolTableRecord
100
AcDbRegAppTableRecord
  2
ACAD_NAV_VCDISPLAY
 70
     0
  0
APPID
  5
CA
330
9
100
AcDbSymbolTableRecord
100
AcDbRegAppTableRecord
  2
ACAD_EXEMPT_FROM_CAD_STANDARDS
 70
     0
  0
APPID
  5
111
330
9
100
AcDbSymbolTableRecord
100
AcDbRegAppTableRecord
  2
ACAD_MLEADERVER
 70
     0
  0
APPID
  5
14E
330
9
100
AcDbSymbolTableRecord
100
AcDbRegAppTableRecord
  2
ACAD_PSEXT
 70
     0
  0
ENDTAB
  0
TABLE
  2
DIMSTYLE
  5
A
330
0
100
AcDbSymbolTable
 70
     3
100
AcDbDimStyleTable
 71
     1
340
27
  0
DIMSTYLE
105
27
330
A
100
AcDbSymbolTableRecord
100
AcDbDimStyleTableRecord
  2
Standard
 70
     0
340
11
  0
DIMSTYLE
105
C0
330
A
100
AcDbSymbolTableRecord
100
AcDbDimStyleTableRecord
  2
ISO-25
 70
     0
 41
18.0
 42
0.625
 43
3.75
 44
1.25
 73
     0
 77
     1
 78
     8
140
25.0
141
15.0
143
0.03937007874016
147
0.625
171
     3
172
     1
176
   256
177
   256
271
     2
272
     2
274
     3
278
    44
283
     0
284
     8
340
11
371
     9
372
     9
  0
ENDTAB
  0
TABLE
  2
BLOCK_RECORD
  5
1
330
0
100
AcDbSymbolTable
 70
     2
  0
BLOCK_RECORD
  5
1F
330
1
100
AcDbSymbolTableRecord
100
AcDbBlockTableRecord
  2
*Model_Space
340
22
 70
     0
280
     1
281
     0
  0
BLOCK_RECORD
  5
1B
330
1
100
AcDbSymbolTableRecord
100
AcDbBlockTableRecord
  2
*Paper_Space
340
1E
 70
     0
280
     1
281
     0
  0
BLOCK_RECORD
  5
23
330
1
100
AcDbSymbolTableRecord
100
AcDbBlockTableRecord
  2
*Paper_Space0
340
26
 70
     0
280
     1
281
     0
  0
ENDTAB
  0
ENDSEC
  0
SECTION
  2
BLOCKS
  0
BLOCK
  5
20
330
1F
100
AcDbEntity
  8
0
100
AcDbBlockBegin
  2
*Model_Space
 70
     0
 10
0.0
 20
0.0
 30
0.0
  3
*Model_Space
  1

  0
ENDBLK
  5
21
330
1F
100
AcDbEntity
  8
0
100
AcDbBlockEnd
  0
BLOCK
  5
1C
330
1B
100
AcDbEntity
 67
     1
  8
0
100
AcDbBlockBegin
  2
*Paper_Space
 70
     0
 10
0.0
 20
0.0
 30
0.0
  3
*Paper_Space
  1

  0
ENDBLK
  5
1D
330
1B
100
AcDbEntity
 67
     1
  8
0
100
AcDbBlockEnd
  0
BLOCK
  5
24
330
23
100
AcDbEntity
 67
     1
  8
0
100
AcDbBlockBegin
  2
*Paper_Space0
 70
     0
 10
0.0
 20
0.0
 30
0.0
  3
*Paper_Space0
  1

  0
ENDBLK
  5
25
330
23
100
AcDbEntity
 67
     1
  8
0
100
AcDbBlockEnd
  0
ENDSEC
  0
SECTION
  2
ENTITIES
  0
SPLINE
  5
5F
330
1F
100
AcDbEntity
  8
layer 1
 62
     7
370
     9
100
AcDbSpline
210
0.0
220
0.0
230
1.0
 70
     9
 71
     3
 72
    36
 73
    32
 74
     0
 42
0.0000000001
 43
0.0000000001
 40
0.0
 40
0.0
 40
0.0
 40
0.0
 40
0.125
 40
0.125
 40
0.125
 40
0.1875
 40
0.25
 40
0.25
 40
0.25
 40
0.3125
 40
0.375
 40
0.375
 40
0.375
 40
0.4375
 40
0.5
 40
0.5
 40
0.5
 40
0.5625
 40
0.625
 40
0.625
 40
0.625
 40
0.6875
 40
0.75
 40
0.75
 40
0.75
 40
0.8125
 40
0.875
 40
0.875
 40
0.875
 40
0.9375
 40
1.0
 40
1.0
 40
1.0
 40
1.0
 10
785.30772
 20
-85.52585
 30
0.0
 10
785.30772
 20
-85.52585
 30
0.0
 10
826.9496999999999
 20
-85.52585
 30
0.0
 10
826.9496999999999
 20
-85.52585
 30
0.0
 10
826.9496999999999
 20
-85.52585
 30
0.0
 10
828.0106299999998
 20
-85.52585
 30
0.0
 10
828.87871
 20
-86.34936999999998
 30
0.0
 10
828.87871
 20
-87.35589
 30
0.0
 10
828.87871
 20
-87.35589
 30
0.0
 10
828.87871
 20
-87.35589
 30
0.0
 10
828.87871
 20
-114.19581
 30
0.0
 10
828.87871
 20
-114.19581
 30
0.0
 10
828.87871
 20
-114.19581
 30
0.0
 10
828.87871
 20
-115.20233
 30
0.0
 10
828.0106299999998
 20
-116.02585
 30
0.0
 10
826.9496999999999
 20
-116.02585
 30
0.0
 10
826.9496999999999
 20
-116.02585
 30
0.0
 10
826.9496999999999
 20
-116.02585
 30
0.0
 10
785.30772
 20
-116.02585
 30
0.0
 10
785.30772
 20
-116.02585
 30
0.0
 10
785.30772
 20
-116.02585
 30
0.0
 10
784.24674
 20
-116.02585
 30
0.0
 10
783.3787099999998
 20
-115.20233
 30
0.0
 10
783.3787099999998
 20
-114.19581
 30
0.0
 10
783.3787099999998
 20
-114.19581
 30
0.0
 10
783.3787099999998
 20
-114.19581
 30
0.0
 10
783.3787099999998
 20
-87.35589
 30
0.0
 10
783.3787099999998
 20
-87.35589
 30
0.0
 10
783.3787099999998
 20
-87.35589
 30
0.0
 10
783.3787099999998
 20
-86.34936999999998
 30
0.0
 10
784.24674
 20
-85.52585
 30
0.0
 10
785.30772
 20
-85.52585
 30
0.0
  0
SPLINE
  5
6D
330
1F
100
AcDbEntity
  8
layer 1
 62
     7
370
     9
100
AcDbSpline
210
0.0
220
0.0
230
1.0
 70
     9
 71
     3
 72
    20
 73
    16
 74
     0
 42
0.0000000001
 43
0.0000000001
 40
0.0
 40
0.0
 40
0.0
 40
0.0
 40
0.25
 40
0.25
 40
0.25
 40
0.375
 40
0.5
 40
0.5
 40
0.5
 40
0.625
 40
0.75
 40
0.75
 40
0.75
 40
0.875
 40
1.0
 40
1.0
 40
1.0
 40
1.0
 10
806.12875
 20
-92.76127
 30
0.0
 10
807.2464700000001
 20
-92.76127
 30
0.0
 10
808.15809
 20
-93.67836
 30
0.0
 10
808.15809
 20
-94.80279000000001
 30
0.0
 10
808.15809
 20
-94.80279000000001
 30
0.0
 10
808.15809
 20
-95.92722
 30
0.0
 10
807.2464700000001
 20
-96.84431
 30
0.0
 10
806.12875
 20
-96.84431
 30
0.0
 10
806.12875
 20
-96.84431
 30
0.0
 10
805.01103
 20
-96.84431
 30
0.0
 10
804.0994099999998
 20
-95.92722
 30
0.0
 10
804.0994099999998
 20
-94.80279000000001
 30
0.0
 10
804.0994099999998
 20
-94.80279000000001
 30
0.0
 10
804.0994099999998
 20
-93.67836
 30
0.0
 10
805.01103
 20
-92.76127
 30
0.0
 10
806.12875
 20
-92.76127
 30
0.0
  0
SPLINE
  5
6E
330
1F
100
AcDbEntity
  8
layer 1
 62
     7
370
    35
100
AcDbSpline
210
0.0
220
0.0
230
1.0
 70
    24
 71
     3
 72
     8
 73
     4
 74
     0
 42
0.0000000001
 43
0.0000000001
 40
0.0
 40
0.0
 40
0.0
 40
0.0
 40
1.0
 40
1.0
 40
1.0
 40
1.0
 10
806.12875
 20
-97.0995
 30
0.0
 10
806.12875
 20
-97.0995
 30
0.0
 10
806.12875
 20
-101.18254
 30
0.0
 10
806.12875
 20
-101.18254
 30
0.0
  0
SPLINE
  5
6F
330
1F
100
AcDbEntity
  8
layer 1
 62
     7
370
    35
100
AcDbSpline
210
0.0
220
0.0
230
1.0
 70
    24
 71
     3
 72
     8
 73
     4
 74
     0
 42
0.0000000001
 43
0.0000000001
 40
0.0
 40
0.0
 40
0.0
 40
0.0
 40
1.0
 40
1.0
 40
1.0
 40
1.0
 10
808.15809
 20
-99.14101
 30
0.0
 10
808.15809
 20
-99.14101
 30
0.0
 10
804.0994099999998
 20
-99.14101
 30
0.0
 10
804.0994099999998
 20
-99.14101
 30
0.0
  0
SPLINE
  5
80
330
1F
100
AcDbEntity
  8
layer 1
 62
     7
100
AcDbSpline
210
0.0
220
0.0
230
1.0
 70
     9
 71
     3
 72
    96
 73
    92
 74
     0
 42
0.0000000001
 43
0.0000000001
 40
0.0
 40
0.0
 40
0.0
 40
0.0
 40
0.0434782608695652
 40
0.0434782608695652
 40
0.0434782608695652
 40
0.0652173913043478
 40
0.0869565217391305
 40
0.0869565217391305
 40
0.0869565217391305
 40
0.108695652173913
 40
0.1304347826086956
 40
0.1304347826086956
 40
0.1304347826086956
 40
0.1521739130434783
 40
0.1739130434782609
 40
0.1739130434782609
 40
0.1739130434782609
 40
0.1956521739130435
 40
0.2173913043478261
 40
0.2173913043478261
 40
0.2173913043478261
 40
0.2391304347826087
 40
0.2608695652173913
 40
0.2608695652173913
 40
0.2608695652173913
 40
0.2826086956521739
 40
0.3043478260869565
 40
0.3043478260869565
 40
0.3043478260869565
 40
0.3260869565217392
 40
0.3478260869565217
 40
0.3478260869565217
 40
0.3478260869565217
 40
0.3695652173913043
 40
0.3913043478260869
 40
0.3913043478260869
 40
0.3913043478260869
 40
0.4130434782608697
 40
0.4347826086956523
 40
0.4347826086956523
 40
0.4347826086956523
 40
0.4565217391304347
 40
0.4782608695652173
 40
0.4782608695652173
 40
0.4782608695652173
 40
0.5
 40
0.5217391304347825
 40
0.5217391304347825
 40
0.5217391304347825
 40
0.5434782608695651
 40
0.5652173913043477
 40
0.5652173913043477
 40
0.5652173913043477
 40
0.5869565217391303
 40
0.6086956521739129
 40
0.6086956521739129
 40
0.6086956521739129
 40
0.6304347826086955
 40
0.6521739130434781
 40
0.6521739130434781
 40
0.6521739130434781
 40
0.6739130434782608
 40
0.6956521739130432
 40
0.6956521739130432
 40
0.6956521739130432
 40
0.7173913043478258
 40
0.7391304347826086
 40
0.7391304347826086
 40
0.7391304347826086
 40
0.7608695652173912
 40
0.7826086956521738
 40
0.7826086956521738
 40
0.7826086956521738
 40
0.8043478260869562
 40
0.8260869565217387
 40
0.8260869565217387
 40
0.8260869565217387
 40
0.8478260869565213
 40
0.8695652173913039
 40
0.8695652173913039
 40
0.8695652173913039
 40
0.8913043478260863
 40
0.9130434782608691
 40
0.9130434782608691
 40
0.9130434782608691
 40
0.9347826086956516
 40
0.9565217391304344
 40
0.9565217391304344
 40
0.9565217391304344
 40
0.9782608695652172
 40
1.0
 40
1.0
 40
1.0
 40
1.0
 10
798.3852699999999
 20
-118.39356
 30
0.0
 10
798.3852699999999
 20
-118.39356
 30
0.0
 10
798.45658
 20
-118.33814
 30
0.0
 10
798.45658
 20
-118.33814
 30
0.0
 10
798.45658
 20
-118.33814
 30
0.0
 10
798.45658
 20
-118.33814
 30
0.0
 10
798.34572
 20
-118.22728
 30
0.0
 10
798.34572
 20
-118.22728
 30
0.0
 10
798.34572
 20
-118.22728
 30
0.0
 10
798.34572
 20
-118.22728
 30
0.0
 10
798.2585299999998
 20
-118.31448
 30
0.0
 10
798.2585299999998
 20
-118.31448
 30
0.0
 10
798.2585299999998
 20
-118.31448
 30
0.0
 10
798.2585299999998
 20
-118.31448
 30
0.0
 10
797.3950099999998
 20
-118.31448
 30
0.0
 10
797.3950099999998
 20
-118.31448
 30
0.0
 10
797.3950099999998
 20
-118.31448
 30
0.0
 10
797.3950099999998
 20
-118.31448
 30
0.0
 10
797.26827
 20
-118.23506
 30
0.0
 10
797.26827
 20
-118.23506
 30
0.0
 10
797.26827
 20
-118.23506
 30
0.0
 10
797.2787499999998
 20
-118.70517
 30
0.0
 10
797.27605
 20
-119.02455
 30
0.0
 10
797.2604999999998
 20
-119.19354
 30
0.0
 10
797.2604999999998
 20
-119.19354
 30
0.0
 10
797.2446200000002
 20
-119.36252
 30
0.0
 10
797.2037199999999
 20
-119.5038
 30
0.0
 10
797.13748
 20
-119.61735
 30
0.0
 10
797.13748
 20
-119.61735
 30
0.0
 10
797.0715799999999
 20
-119.73091
 30
0.0
 10
796.9779599999999
 20
-119.84582
 30
0.0
 10
796.8562899999998
 20
-119.96208
 30
0.0
 10
796.8562899999998
 20
-119.96208
 30
0.0
 10
796.8562899999998
 20
-119.96208
 30
0.0
 10
796.8721699999998
 20
-119.99351
 30
0.0
 10
796.8721699999998
 20
-119.99351
 30
0.0
 10
796.8721699999998
 20
-119.99351
 30
0.0
 10
797.0675199999998
 20
-119.84582
 30
0.0
 10
797.2037199999999
 20
-119.69272
 30
0.0
 10
797.2800999999998
 20
-119.53421
 30
0.0
 10
797.2800999999998
 20
-119.53421
 30
0.0
 10
797.3568199999998
 20
-119.3757
 30
0.0
 10
797.3950099999998
 20
-119.1485899999999
 30
0.0
 10
797.3950099999998
 20
-118.85286
 30
0.0
 10
797.3950099999998
 20
-118.85286
 30
0.0
 10
797.3950099999998
 20
-118.85286
 30
0.0
 10
797.75935
 20
-118.85286
 30
0.0
 10
797.75935
 20
-118.85286
 30
0.0
 10
797.75935
 20
-118.85286
 30
0.0
 10
797.78571
 20
-119.05903
 30
0.0
 10
797.8506
 20
-119.25302
 30
0.0
 10
797.95334
 20
-119.43519
 30
0.0
 10
797.95334
 20
-119.43519
 30
0.0
 10
798.0564199999998
 20
-119.61735
 30
0.0
 10
798.2372299999998
 20
-119.77992
 30
0.0
 10
798.49612
 20
-119.9222
 30
0.0
 10
798.49612
 20
-119.9222
 30
0.0
 10
798.5383699999998
 20
-119.84852
 30
0.0
 10
798.60157
 20
-119.81405
 30
0.0
 10
798.6860599999999
 20
-119.81946
 30
0.0
 10
798.6860599999999
 20
-119.81946
 30
0.0
 10
798.6860599999999
 20
-119.81946
 30
0.0
 10
798.6860599999999
 20
-119.78769
 30
0.0
 10
798.6860599999999
 20
-119.78769
 30
0.0
 10
798.6860599999999
 20
-119.78769
 30
0.0
 10
798.43799
 20
-119.72415
 30
0.0
 10
798.2467
 20
-119.62411
 30
0.0
 10
798.11185
 20
-119.48656
 30
0.0
 10
798.11185
 20
-119.48656
 30
0.0
 10
797.97734
 20
-119.34934
 30
0.0
 10
797.8783100000002
 20
-119.13811
 30
0.0
 10
797.81477
 20
-118.85286
 30
0.0
 10
797.81477
 20
-118.85286
 30
0.0
 10
797.81477
 20
-118.85286
 30
0.0
 10
798.2744099999998
 20
-118.85286
 30
0.0
 10
798.2744099999998
 20
-118.85286
 30
0.0
 10
798.2744099999998
 20
-118.85286
 30
0.0
 10
798.2744099999998
 20
-118.85286
 30
0.0
 10
798.2744099999998
 20
-118.98772
 30
0.0
 10
798.2744099999998
 20
-118.98772
 30
0.0
 10
798.2744099999998
 20
-118.98772
 30
0.0
 10
798.2744099999998
 20
-118.98772
 30
0.0
 10
798.39304
 20
-118.94006
 30
0.0
 10
798.39304
 20
-118.94006
 30
0.0
 10
798.39304
 20
-118.94006
 30
0.0
 10
798.38797
 20
-118.81873
 30
0.0
 10
798.3852699999999
 20
-118.71835
 30
0.0
 10
798.3852699999999
 20
-118.63927
 30
0.0
 10
798.3852699999999
 20
-118.63927
 30
0.0
 10
798.3852699999999
 20
-118.55985
 30
0.0
 10
798.3852699999999
 20
-118.47806
 30
0.0
 10
798.3852699999999
 20
-118.39356
 30
0.0
  0
SPLINE
  5
81
330
1F
100
AcDbEntity
  8
layer 1
 62
     7
100
AcDbSpline
210
0.0
220
0.0
230
1.0
 70
    11
 71
     3
 72
    20
 73
    16
 74
     0
 42
0.0000000001
 43
0.0000000001
 40
0.0
 40
0.0
 40
0.0
 40
0.0
 40
0.25
 40
0.25
 40
0.25
 40
0.375
 40
0.5
 40
0.5
 40
0.5
 40
0.625
 40
0.75
 40
0.75
 40
0.75
 40
0.875
 40
1.0
 40
1.0
 40
1.0
 40
1.0
 10
797.3950099999998
 20
-118.35402
 30
0.0
 10
797.3950099999998
 20
-118.35402
 30
0.0
 10
798.2744099999998
 20
-118.35402
 30
0.0
 10
798.2744099999998
 20
-118.35402
 30
0.0
 10
798.2744099999998
 20
-118.35402
 30
0.0
 10
798.2744099999998
 20
-118.35402
 30
0.0
 10
798.2744099999998
 20
-118.81332
 30
0.0
 10
798.2744099999998
 20
-118.81332
 30
0.0
 10
798.2744099999998
 20
-118.81332
 30
0.0
 10
798.2744099999998
 20
-118.81332
 30
0.0
 10
797.3950099999998
 20
-118.81332
 30
0.0
 10
797.3950099999998
 20
-118.81332
 30
0.0
 10
797.3950099999998
 20
-118.81332
 30
0.0
 10
797.3950099999998
 20
-118.81332
 30
0.0
 10
797.3950099999998
 20
-118.35402
 30
0.0
 10
797.3950099999998
 20
-118.35402
 30
0.0
  0
SPLINE
  5
82
330
1F
100
AcDbEntity
  8
layer 1
 62
     7
100
AcDbSpline
210
0.0
220
0.0
230
1.0
 70
     9
 71
     3
 72
    88
 73
    84
 74
     0
 42
0.0000000001
 43
0.0000000001
 40
0.0
 40
0.0
 40
0.0
 40
0.0
 40
0.0476190476190476
 40
0.0476190476190476
 40
0.0476190476190476
 40
0.0714285714285714
 40
0.0952380952380953
 40
0.0952380952380953
 40
0.0952380952380953
 40
0.119047619047619
 40
0.1428571428571428
 40
0.1428571428571428
 40
0.1428571428571428
 40
0.1666666666666666
 40
0.1904761904761905
 40
0.1904761904761905
 40
0.1904761904761905
 40
0.2142857142857143
 40
0.2380952380952381
 40
0.2380952380952381
 40
0.2380952380952381
 40
0.2619047619047619
 40
0.2857142857142857
 40
0.2857142857142857
 40
0.2857142857142857
 40
0.3095238095238095
 40
0.3333333333333333
 40
0.3333333333333333
 40
0.3333333333333333
 40
0.3571428571428571
 40
0.3809523809523809
 40
0.3809523809523809
 40
0.3809523809523809
 40
0.4047619047619049
 40
0.4285714285714287
 40
0.4285714285714287
 40
0.4285714285714287
 40
0.4523809523809524
 40
0.4761904761904762
 40
0.4761904761904762
 40
0.4761904761904762
 40
0.5
 40
0.5238095238095239
 40
0.5238095238095239
 40
0.5238095238095239
 40
0.5476190476190476
 40
0.5714285714285714
 40
0.5714285714285714
 40
0.5714285714285714
 40
0.5952380952380954
 40
0.6190476190476191
 40
0.6190476190476191
 40
0.6190476190476191
 40
0.6428571428571429
 40
0.6666666666666669
 40
0.6666666666666669
 40
0.6666666666666669
 40
0.6904761904761906
 40
0.7142857142857145
 40
0.7142857142857145
 40
0.7142857142857145
 40
0.7380952380952383
 40
0.7619047619047621
 40
0.7619047619047621
 40
0.7619047619047621
 40
0.7857142857142858
 40
0.8095238095238098
 40
0.8095238095238098
 40
0.8095238095238098
 40
0.8333333333333335
 40
0.8571428571428574
 40
0.8571428571428574
 40
0.8571428571428574
 40
0.8809523809523811
 40
0.9047619047619052
 40
0.9047619047619052
 40
0.9047619047619052
 40
0.9285714285714291
 40
0.9523809523809527
 40
0.9523809523809527
 40
0.9523809523809527
 40
0.9761904761904764
 40
1.0
 40
1.0
 40
1.0
 40
1.0
 10
799.8554299999998
 20
-119.76403
 30
0.0
 10
799.8554299999998
 20
-119.76403
 30
0.0
 10
799.8554299999998
 20
-119.80357
 30
0.0
 10
799.8554299999998
 20
-119.80357
 30
0.0
 10
799.8554299999998
 20
-119.80357
 30
0.0
 10
800.0135999999999
 20
-119.84582
 30
0.0
 10
800.11668
 20
-119.91172
 30
0.0
 10
800.16434
 20
-120.00163
 30
0.0
 10
800.16434
 20
-120.00163
 30
0.0
 10
800.2224700000001
 20
-119.98033
 30
0.0
 10
800.2660699999999
 20
-119.94992
 30
0.0
 10
800.29479
 20
-119.91037
 30
0.0
 10
800.29479
 20
-119.91037
 30
0.0
 10
800.3238599999999
 20
-119.87083
 30
0.0
 10
800.3383899999999
 20
-119.82994
 30
0.0
 10
800.3383899999999
 20
-119.78769
 30
0.0
 10
800.3383899999999
 20
-119.78769
 30
0.0
 10
800.3383899999999
 20
-119.78769
 30
0.0
 10
800.3383899999999
 20
-118.75012
 30
0.0
 10
800.3383899999999
 20
-118.75012
 30
0.0
 10
800.3383899999999
 20
-118.75012
 30
0.0
 10
800.3383899999999
 20
-118.75012
 30
0.0
 10
800.90889
 20
-118.75012
 30
0.0
 10
800.90889
 20
-118.75012
 30
0.0
 10
800.90889
 20
-118.75012
 30
0.0
 10
800.90889
 20
-118.75012
 30
0.0
 10
800.7662599999999
 20
-118.6075
 30
0.0
 10
800.7662599999999
 20
-118.6075
 30
0.0
 10
800.7662599999999
 20
-118.6075
 30
0.0
 10
800.7662599999999
 20
-118.6075
 30
0.0
 10
800.66318
 20
-118.71024
 30
0.0
 10
800.66318
 20
-118.71024
 30
0.0
 10
800.66318
 20
-118.71024
 30
0.0
 10
800.66318
 20
-118.71024
 30
0.0
 10
800.3383899999999
 20
-118.71024
 30
0.0
 10
800.3383899999999
 20
-118.71024
 30
0.0
 10
800.3383899999999
 20
-118.71024
 30
0.0
 10
800.3383899999999
 20
-118.71024
 30
0.0
 10
800.3383899999999
 20
-118.30637
 30
0.0
 10
800.3383899999999
 20
-118.30637
 30
0.0
 10
800.3383899999999
 20
-118.30637
 30
0.0
 10
800.3383899999999
 20
-118.30637
 30
0.0
 10
800.4096999999998
 20
-118.23506
 30
0.0
 10
800.4096999999998
 20
-118.23506
 30
0.0
 10
800.4096999999998
 20
-118.23506
 30
0.0
 10
800.4096999999998
 20
-118.23506
 30
0.0
 10
800.2038800000001
 20
-118.14009
 30
0.0
 10
800.2038800000001
 20
-118.14009
 30
0.0
 10
800.2038800000001
 20
-118.14009
 30
0.0
 10
800.20929
 20
-118.21917
 30
0.0
 10
800.2130099999998
 20
-118.28001
 30
0.0
 10
800.2157099999998
 20
-118.32225
 30
0.0
 10
800.2157099999998
 20
-118.32225
 30
0.0
 10
800.2184099999999
 20
-118.3645
 30
0.0
 10
800.2197599999997
 20
-118.49394
 30
0.0
 10
800.2197599999997
 20
-118.71024
 30
0.0
 10
800.2197599999997
 20
-118.71024
 30
0.0
 10
800.2197599999997
 20
-118.71024
 30
0.0
 10
799.10277
 20
-118.71024
 30
0.0
 10
799.10277
 20
-118.71024
 30
0.0
 10
799.10277
 20
-118.71024
 30
0.0
 10
799.10277
 20
-118.71024
 30
0.0
 10
799.1663099999998
 20
-118.77378
 30
0.0
 10
799.1663099999998
 20
-118.77378
 30
0.0
 10
799.1663099999998
 20
-118.77378
 30
0.0
 10
799.2136299999998
 20
-118.7579
 30
0.0
 10
799.26669
 20
-118.75012
 30
0.0
 10
799.32448
 20
-118.75012
 30
0.0
 10
799.32448
 20
-118.75012
 30
0.0
 10
799.32448
 20
-118.75012
 30
0.0
 10
800.2197599999997
 20
-118.75012
 30
0.0
 10
800.2197599999997
 20
-118.75012
 30
0.0
 10
800.2197599999997
 20
-118.75012
 30
0.0
 10
800.2197599999997
 20
-118.75012
 30
0.0
 10
800.2197599999997
 20
-119.69272
 30
0.0
 10
800.2197599999997
 20
-119.69272
 30
0.0
 10
800.2197599999997
 20
-119.69272
 30
0.0
 10
800.2197599999997
 20
-119.75592
 30
0.0
 10
800.2025299999997
 20
-119.78904
 30
0.0
 10
800.16806
 20
-119.79175
 30
0.0
 10
800.16806
 20
-119.79175
 30
0.0
 10
800.13392
 20
-119.79445
 30
0.0
 10
800.02949
 20
-119.78499
 30
0.0
 10
799.8554299999998
 20
-119.76403
 30
0.0
  0
SPLINE
  5
83
330
1F
100
AcDbEntity
  8
layer 1
 62
     7
100
AcDbSpline
210
0.0
220
0.0
230
1.0
 70
     9
 71
     3
 72
    32
 73
    28
 74
     0
 42
0.0000000001
 43
0.0000000001
 40
0.0
 40
0.0
 40
0.0
 40
0.0
 40
0.1428571428571428
 40
0.1428571428571428
 40
0.1428571428571428
 40
0.2142857142857143
 40
0.2857142857142857
 40
0.2857142857142857
 40
0.2857142857142857
 40
0.3571428571428571
 40
0.4285714285714287
 40
0.4285714285714287
 40
0.4285714285714287
 40
0.5
 40
0.5714285714285714
 40
0.5714285714285714
 40
0.5714285714285714
 40
0.6428571428571428
 40
0.7142857142857144
 40
0.7142857142857144
 40
0.7142857142857144
 40
0.7857142857142856
 40
0.8571428571428569
 40
0.8571428571428569
 40
0.8571428571428569
 40
0.9285714285714284
 40
1.0
 40
1.0
 40
1.0
 40
1.0
 10
799.4671099999999
 20
-118.90829
 30
0.0
 10
799.4671099999999
 20
-118.90829
 30
0.0
 10
799.45122
 20
-118.93229
 30
0.0
 10
799.45122
 20
-118.93229
 30
0.0
 10
799.45122
 20
-118.93229
 30
0.0
 10
799.5201699999999
 20
-119.02726
 30
0.0
 10
799.57019
 20
-119.10262
 30
0.0
 10
799.6019599999998
 20
-119.15805
 30
0.0
 10
799.6019599999998
 20
-119.15805
 30
0.0
 10
799.6333899999998
 20
-119.21348
 30
0.0
 10
799.6600899999998
 20
-119.27296
 30
0.0
 10
799.6810400000001
 20
-119.33616
 30
0.0
 10
799.6810400000001
 20
-119.33616
 30
0.0
 10
799.7023299999998
 20
-119.3997
 30
0.0
 10
799.72734
 20
-119.4166
 30
0.0
 10
799.7564099999999
 20
-119.38753
 30
0.0
 10
799.7564099999999
 20
-119.38753
 30
0.0
 10
799.78547
 20
-119.35847
 30
0.0
 10
799.80237
 20
-119.32298
 30
0.0
 10
799.8077799999999
 20
-119.28074
 30
0.0
 10
799.8077799999999
 20
-119.28074
 30
0.0
 10
799.8131899999998
 20
-119.23849
 30
0.0
 10
799.7959499999998
 20
-119.19083
 30
0.0
 10
799.7564099999999
 20
-119.13811
 30
0.0
 10
799.7564099999999
 20
-119.13811
 30
0.0
 10
799.7168699999998
 20
-119.08539
 30
0.0
 10
799.6202099999999
 20
-119.00867
 30
0.0
 10
799.4671099999999
 20
-118.90829
 30
0.0
  0
SPLINE
  5
84
330
1F
100
AcDbEntity
  8
layer 1
 62
     7
100
AcDbSpline
210
0.0
220
0.0
230
1.0
 70
     9
 71
     3
 72
    28
 73
    24
 74
     0
 42
0.0000000001
 43
0.0000000001
 40
0.0
 40
0.0
 40
0.0
 40
0.0
 40
0.1666666666666666
 40
0.1666666666666666
 40
0.1666666666666666
 40
0.25
 40
0.3333333333333333
 40
0.3333333333333333
 40
0.3333333333333333
 40
0.4166666666666666
 40
0.5
 40
0.5
 40
0.5
 40
0.5833333333333333
 40
0.6666666666666666
 40
0.6666666666666666
 40
0.6666666666666666
 40
0.75
 40
0.8333333333333332
 40
0.8333333333333332
 40
0.8333333333333332
 40
0.9166666666666666
 40
1.0
 40
1.0
 40
1.0
 40
1.0
 10
801.75719
 20
-119.68866
 30
0.0
 10
801.7544799999997
 20
-119.73868
 30
0.0
 10
801.7308299999998
 20
-119.77721
 30
0.0
 10
801.6858799999999
 20
-119.80357
 30
0.0
 10
801.6858799999999
 20
-119.80357
 30
0.0
 10
801.6409300000001
 20
-119.82994
 30
0.0
 10
801.5959799999999
 20
-119.82994
 30
0.0
 10
801.55136
 20
-119.80357
 30
0.0
 10
801.55136
 20
-119.80357
 30
0.0
 10
801.50641
 20
-119.77721
 30
0.0
 10
801.48276
 20
-119.73767
 30
0.0
 10
801.4800499999999
 20
-119.68461
 30
0.0
 10
801.4800499999999
 20
-119.68461
 30
0.0
 10
801.47735
 20
-119.63189
 30
0.0
 10
801.5010099999997
 20
-119.59234
 30
0.0
 10
801.55136
 20
-119.56598
 30
0.0
 10
801.55136
 20
-119.56598
 30
0.0
 10
801.6013799999997
 20
-119.53962
 30
0.0
 10
801.64904
 20
-119.54097
 30
0.0
 10
801.69399
 20
-119.5697
 30
0.0
 10
801.69399
 20
-119.5697
 30
0.0
 10
801.7386
 20
-119.59876
 30
0.0
 10
801.7598900000001
 20
-119.63865
 30
0.0
 10
801.75719
 20
-119.68866
 30
0.0
  0
SPLINE
  5
85
330
1F
100
AcDbEntity
  8
layer 1
 62
     7
100
AcDbSpline
210
0.0
220
0.0
230
1.0
 70
     9
 71
     3
 72
    28
 73
    24
 74
     0
 42
0.0000000001
 43
0.0000000001
 40
0.0
 40
0.0
 40
0.0
 40
0.0
 40
0.1666666666666666
 40
0.1666666666666666
 40
0.1666666666666666
 40
0.25
 40
0.3333333333333333
 40
0.3333333333333333
 40
0.3333333333333333
 40
0.4166666666666666
 40
0.5
 40
0.5
 40
0.5
 40
0.5833333333333333
 40
0.6666666666666666
 40
0.6666666666666666
 40
0.6666666666666666
 40
0.75
 40
0.8333333333333332
 40
0.8333333333333332
 40
0.8333333333333332
 40
0.9166666666666666
 40
1.0
 40
1.0
 40
1.0
 40
1.0
 10
801.76902
 20
-119.21348
 30
0.0
 10
801.76902
 20
-119.26891
 30
0.0
 10
801.7413000000001
 20
-119.30845
 30
0.0
 10
801.6858799999999
 20
-119.33211
 30
0.0
 10
801.6858799999999
 20
-119.33211
 30
0.0
 10
801.63045
 20
-119.3561
 30
0.0
 10
801.58178
 20
-119.3534
 30
0.0
 10
801.5395399999999
 20
-119.32433
 30
0.0
 10
801.5395399999999
 20
-119.32433
 30
0.0
 10
801.49729
 20
-119.29527
 30
0.0
 10
801.47735
 20
-119.25573
 30
0.0
 10
801.4800499999999
 20
-119.20537
 30
0.0
 10
801.4800499999999
 20
-119.20537
 30
0.0
 10
801.48276
 20
-119.15535
 30
0.0
 10
801.50777
 20
-119.11851
 30
0.0
 10
801.5550799999997
 20
-119.09451
 30
0.0
 10
801.5550799999997
 20
-119.09451
 30
0.0
 10
801.60274
 20
-119.07086
 30
0.0
 10
801.65039
 20
-119.07086
 30
0.0
 10
801.69771
 20
-119.09451
 30
0.0
 10
801.69771
 20
-119.09451
 30
0.0
 10
801.7453599999999
 20
-119.11851
 30
0.0
 10
801.76902
 20
-119.15805
 30
0.0
 10
801.76902
 20
-119.21348
 30
0.0
  0
SPLINE
  5
86
330
1F
100
AcDbEntity
  8
layer 1
 62
     7
100
AcDbSpline
210
0.0
220
0.0
230
1.0
 70
    11
 71
     3
 72
    48
 73
    44
 74
     0
 42
0.0000000001
 43
0.0000000001
 40
0.0
 40
0.0
 40
0.0
 40
0.0
 40
0.0909090909090909
 40
0.0909090909090909
 40
0.0909090909090909
 40
0.1363636363636363
 40
0.1818181818181818
 40
0.1818181818181818
 40
0.1818181818181818
 40
0.2272727272727272
 40
0.2727272727272727
 40
0.2727272727272727
 40
0.2727272727272727
 40
0.3181818181818182
 40
0.3636363636363637
 40
0.3636363636363637
 40
0.3636363636363637
 40
0.4090909090909091
 40
0.4545454545454546
 40
0.4545454545454546
 40
0.4545454545454546
 40
0.5
 40
0.5454545454545455
 40
0.5454545454545455
 40
0.5454545454545455
 40
0.590909090909091
 40
0.6363636363636365
 40
0.6363636363636365
 40
0.6363636363636365
 40
0.6818181818181819
 40
0.7272727272727276
 40
0.7272727272727276
 40
0.7272727272727276
 40
0.772727272727273
 40
0.8181818181818183
 40
0.8181818181818183
 40
0.8181818181818183
 40
0.8636363636363636
 40
0.9090909090909091
 40
0.9090909090909091
 40
0.9090909090909091
 40
0.9545454545454546
 40
1.0
 40
1.0
 40
1.0
 40
1.0
 10
803.90566
 20
-119.78769
 30
0.0
 10
803.90566
 20
-119.78769
 30
0.0
 10
803.90566
 20
-119.44026
 30
0.0
 10
803.90566
 20
-119.44026
 30
0.0
 10
803.90566
 20
-119.44026
 30
0.0
 10
803.90566
 20
-119.44026
 30
0.0
 10
803.2760299999999
 20
-119.44026
 30
0.0
 10
803.2760299999999
 20
-119.44026
 30
0.0
 10
803.2760299999999
 20
-119.44026
 30
0.0
 10
803.2760299999999
 20
-119.44026
 30
0.0
 10
803.2760299999999
 20
-119.27668
 30
0.0
 10
803.2760299999999
 20
-119.27668
 30
0.0
 10
803.2760299999999
 20
-119.27668
 30
0.0
 10
803.2760299999999
 20
-119.27668
 30
0.0
 10
803.93845
 20
-118.33611
 30
0.0
 10
803.93845
 20
-118.33611
 30
0.0
 10
803.93845
 20
-118.33611
 30
0.0
 10
803.93845
 20
-118.33611
 30
0.0
 10
804.0841099999999
 20
-118.33611
 30
0.0
 10
804.0841099999999
 20
-118.33611
 30
0.0
 10
804.0841099999999
 20
-118.33611
 30
0.0
 10
804.0841099999999
 20
-118.33611
 30
0.0
 10
804.0841099999999
 20
-119.27668
 30
0.0
 10
804.0841099999999
 20
-119.27668
 30
0.0
 10
804.0841099999999
 20
-119.27668
 30
0.0
 10
804.0841099999999
 20
-119.27668
 30
0.0
 10
804.28013
 20
-119.27668
 30
0.0
 10
804.28013
 20
-119.27668
 30
0.0
 10
804.28013
 20
-119.27668
 30
0.0
 10
804.28013
 20
-119.27668
 30
0.0
 10
804.28013
 20
-119.44026
 30
0.0
 10
804.28013
 20
-119.44026
 30
0.0
 10
804.28013
 20
-119.44026
 30
0.0
 10
804.28013
 20
-119.44026
 30
0.0
 10
804.0841099999999
 20
-119.44026
 30
0.0
 10
804.0841099999999
 20
-119.44026
 30
0.0
 10
804.0841099999999
 20
-119.44026
 30
0.0
 10
804.0841099999999
 20
-119.44026
 30
0.0
 10
804.0841099999999
 20
-119.78769
 30
0.0
 10
804.0841099999999
 20
-119.78769
 30
0.0
 10
804.0841099999999
 20
-119.78769
 30
0.0
 10
804.0841099999999
 20
-119.78769
 30
0.0
 10
803.90566
 20
-119.78769
 30
0.0
 10
803.90566
 20
-119.78769
 30
0.0
  0
SPLINE
  5
87
330
1F
100
AcDbEntity
  8
layer 1
 62
     7
100
AcDbSpline
210
0.0
220
0.0
230
1.0
 70
    11
 71
     3
 72
    16
 73
    12
 74
     0
 42
0.0000000001
 43
0.0000000001
 40
0.0
 40
0.0
 40
0.0
 40
0.0
 40
0.3333333333333333
 40
0.3333333333333333
 40
0.3333333333333333
 40
0.5
 40
0.6666666666666666
 40
0.6666666666666666
 40
0.6666666666666666
 40
0.8333333333333332
 40
1.0
 40
1.0
 40
1.0
 40
1.0
 10
803.90566
 20
-119.27668
 30
0.0
 10
803.90566
 20
-119.27668
 30
0.0
 10
803.90566
 20
-118.62237
 30
0.0
 10
803.90566
 20
-118.62237
 30
0.0
 10
803.90566
 20
-118.62237
 30
0.0
 10
803.90566
 20
-118.62237
 30
0.0
 10
803.4514299999997
 20
-119.27668
 30
0.0
 10
803.4514299999997
 20
-119.27668
 30
0.0
 10
803.4514299999997
 20
-119.27668
 30
0.0
 10
803.4514299999997
 20
-119.27668
 30
0.0
 10
803.90566
 20
-119.27668
 30
0.0
 10
803.90566
 20
-119.27668
 30
0.0
  0
SPLINE
  5
88
330
1F
100
AcDbEntity
  8
layer 1
 62
     7
100
AcDbSpline
210
0.0
220
0.0
230
1.0
 70
     9
 71
     3
 72
    92
 73
    88
 74
     0
 42
0.0000000001
 43
0.0000000001
 40
0.0
 40
0.0
 40
0.0
 40
0.0
 40
0.0454545454545455
 40
0.0454545454545455
 40
0.0454545454545455
 40
0.0681818181818182
 40
0.0909090909090909
 40
0.0909090909090909
 40
0.0909090909090909
 40
0.1136363636363636
 40
0.1363636363636363
 40
0.1363636363636363
 40
0.1363636363636363
 40
0.1590909090909091
 40
0.1818181818181818
 40
0.1818181818181818
 40
0.1818181818181818
 40
0.2045454545454545
 40
0.2272727272727273
 40
0.2272727272727273
 40
0.2272727272727273
 40
0.25
 40
0.2727272727272727
 40
0.2727272727272727
 40
0.2727272727272727
 40
0.2954545454545455
 40
0.3181818181818182
 40
0.3181818181818182
 40
0.3181818181818182
 40
0.3409090909090909
 40
0.3636363636363637
 40
0.3636363636363637
 40
0.3636363636363637
 40
0.3863636363636365
 40
0.4090909090909093
 40
0.4090909090909093
 40
0.4090909090909093
 40
0.4318181818181819
 40
0.4545454545454547
 40
0.4545454545454547
 40
0.4545454545454547
 40
0.4772727272727276
 40
0.5000000000000001
 40
0.5000000000000001
 40
0.5000000000000001
 40
0.522727272727273
 40
0.5454545454545455
 40
0.5454545454545455
 40
0.5454545454545455
 40
0.5681818181818184
 40
0.590909090909091
 40
0.590909090909091
 40
0.590909090909091
 40
0.6136363636363637
 40
0.6363636363636364
 40
0.6363636363636364
 40
0.6363636363636364
 40
0.6590909090909091
 40
0.6818181818181818
 40
0.6818181818181818
 40
0.6818181818181818
 40
0.7045454545454545
 40
0.7272727272727272
 40
0.7272727272727272
 40
0.7272727272727272
 40
0.75
 40
0.7727272727272726
 40
0.7727272727272726
 40
0.7727272727272726
 40
0.7954545454545455
 40
0.8181818181818179
 40
0.8181818181818179
 40
0.8181818181818179
 40
0.8409090909090906
 40
0.8636363636363634
 40
0.8636363636363634
 40
0.8636363636363634
 40
0.8863636363636361
 40
0.9090909090909088
 40
0.9090909090909088
 40
0.9090909090909088
 40
0.9318181818181814
 40
0.9545454545454543
 40
0.9545454545454543
 40
0.9545454545454543
 40
0.9772727272727268
 40
1.0
 40
1.0
 40
1.0
 40
1.0
 10
804.5749799999999
 20
-119.40747
 30
0.0
 10
804.5749799999999
 20
-119.40747
 30
0.0
 10
804.7622199999999
 20
-119.39159
 30
0.0
 10
804.7622199999999
 20
-119.39159
 30
0.0
 10
804.7622199999999
 20
-119.39159
 30
0.0
 10
804.77608
 20
-119.48284
 30
0.0
 10
804.80818
 20
-119.55111
 30
0.0
 10
804.85854
 20
-119.59707
 30
0.0
 10
804.85854
 20
-119.59707
 30
0.0
 10
804.9092399999999
 20
-119.64304
 30
0.0
 10
804.9700699999997
 20
-119.66602
 30
0.0
 10
805.0413799999999
 20
-119.66602
 30
0.0
 10
805.0413799999999
 20
-119.66602
 30
0.0
 10
805.1272299999999
 20
-119.66602
 30
0.0
 10
805.1998899999999
 20
-119.63358
 30
0.0
 10
805.2590399999997
 20
-119.56902
 30
0.0
 10
805.2590399999997
 20
-119.56902
 30
0.0
 10
805.3185199999997
 20
-119.50413
 30
0.0
 10
805.34826
 20
-119.41829
 30
0.0
 10
805.34826
 20
-119.31149
 30
0.0
 10
805.34826
 20
-119.31149
 30
0.0
 10
805.34826
 20
-119.20976
 30
0.0
 10
805.3198700000001
 20
-119.12966
 30
0.0
 10
805.2627499999998
 20
-119.07086
 30
0.0
 10
805.2627499999998
 20
-119.07086
 30
0.0
 10
805.2056399999999
 20
-119.01205
 30
0.0
 10
805.13095
 20
-118.98265
 30
0.0
 10
805.0383399999997
 20
-118.98265
 30
0.0
 10
805.0383399999997
 20
-118.98265
 30
0.0
 10
804.98089
 20
-118.98265
 30
0.0
 10
804.92918
 20
-118.99583
 30
0.0
 10
804.88288
 20
-119.02185
 30
0.0
 10
804.88288
 20
-119.02185
 30
0.0
 10
804.8365700000001
 20
-119.04787
 30
0.0
 10
804.8004099999998
 20
-119.08167
 30
0.0
 10
804.7740499999999
 20
-119.12324
 30
0.0
 10
804.7740499999999
 20
-119.12324
 30
0.0
 10
804.7740499999999
 20
-119.12324
 30
0.0
 10
804.6067500000001
 20
-119.10161
 30
0.0
 10
804.6067500000001
 20
-119.10161
 30
0.0
 10
804.6067500000001
 20
-119.10161
 30
0.0
 10
804.6067500000001
 20
-119.10161
 30
0.0
 10
804.74735
 20
-118.35605
 30
0.0
 10
804.74735
 20
-118.35605
 30
0.0
 10
804.74735
 20
-118.35605
 30
0.0
 10
804.74735
 20
-118.35605
 30
0.0
 10
805.4692499999998
 20
-118.35605
 30
0.0
 10
805.4692499999998
 20
-118.35605
 30
0.0
 10
805.4692499999998
 20
-118.35605
 30
0.0
 10
805.4692499999998
 20
-118.35605
 30
0.0
 10
805.4692499999998
 20
-118.52639
 30
0.0
 10
805.4692499999998
 20
-118.52639
 30
0.0
 10
805.4692499999998
 20
-118.52639
 30
0.0
 10
805.4692499999998
 20
-118.52639
 30
0.0
 10
804.8899699999997
 20
-118.52639
 30
0.0
 10
804.8899699999997
 20
-118.52639
 30
0.0
 10
804.8899699999997
 20
-118.52639
 30
0.0
 10
804.8899699999997
 20
-118.52639
 30
0.0
 10
804.8115599999999
 20
-118.9164
 30
0.0
 10
804.8115599999999
 20
-118.9164
 30
0.0
 10
804.8115599999999
 20
-118.9164
 30
0.0
 10
804.89876
 20
-118.85557
 30
0.0
 10
804.99035
 20
-118.82515
 30
0.0
 10
805.086
 20
-118.82515
 30
0.0
 10
805.086
 20
-118.82515
 30
0.0
 10
805.21273
 20
-118.82515
 30
0.0
 10
805.31953
 20
-118.86909
 30
0.0
 10
805.4067299999998
 20
-118.95696
 30
0.0
 10
805.4067299999998
 20
-118.95696
 30
0.0
 10
805.4939199999999
 20
-119.04483
 30
0.0
 10
805.53752
 20
-119.15771
 30
0.0
 10
805.53752
 20
-119.29561
 30
0.0
 10
805.53752
 20
-119.29561
 30
0.0
 10
805.53752
 20
-119.42708
 30
0.0
 10
805.49899
 20
-119.54063
 30
0.0
 10
805.4226099999999
 20
-119.63628
 30
0.0
 10
805.4226099999999
 20
-119.63628
 30
0.0
 10
805.3293299999998
 20
-119.75356
 30
0.0
 10
805.2022599999999
 20
-119.81236
 30
0.0
 10
805.0413799999999
 20
-119.81236
 30
0.0
 10
805.0413799999999
 20
-119.81236
 30
0.0
 10
804.9092399999999
 20
-119.81236
 30
0.0
 10
804.80142
 20
-119.77552
 30
0.0
 10
804.71795
 20
-119.70151
 30
0.0
 10
804.71795
 20
-119.70151
 30
0.0
 10
804.63447
 20
-119.62749
 30
0.0
 10
804.5868099999999
 20
-119.52948
 30
0.0
 10
804.5749799999999
 20
-119.40747
 30
0.0
  0
SPLINE
  5
89
330
1F
100
AcDbEntity
  8
layer 1
 62
     7
100
AcDbSpline
210
0.0
220
0.0
230
1.0
 70
     9
 71
     3
 72
    92
 73
    88
 74
     0
 42
0.0000000001
 43
0.0000000001
 40
0.0
 40
0.0
 40
0.0
 40
0.0
 40
0.0454545454545455
 40
0.0454545454545455
 40
0.0454545454545455
 40
0.0681818181818182
 40
0.0909090909090909
 40
0.0909090909090909
 40
0.0909090909090909
 40
0.1136363636363636
 40
0.1363636363636363
 40
0.1363636363636363
 40
0.1363636363636363
 40
0.1590909090909091
 40
0.1818181818181818
 40
0.1818181818181818
 40
0.1818181818181818
 40
0.2045454545454545
 40
0.2272727272727273
 40
0.2272727272727273
 40
0.2272727272727273
 40
0.25
 40
0.2727272727272727
 40
0.2727272727272727
 40
0.2727272727272727
 40
0.2954545454545455
 40
0.3181818181818182
 40
0.3181818181818182
 40
0.3181818181818182
 40
0.3409090909090909
 40
0.3636363636363637
 40
0.3636363636363637
 40
0.3636363636363637
 40
0.3863636363636365
 40
0.4090909090909093
 40
0.4090909090909093
 40
0.4090909090909093
 40
0.4318181818181819
 40
0.4545454545454547
 40
0.4545454545454547
 40
0.4545454545454547
 40
0.4772727272727276
 40
0.5000000000000001
 40
0.5000000000000001
 40
0.5000000000000001
 40
0.522727272727273
 40
0.5454545454545455
 40
0.5454545454545455
 40
0.5454545454545455
 40
0.5681818181818184
 40
0.590909090909091
 40
0.590909090909091
 40
0.590909090909091
 40
0.6136363636363637
 40
0.6363636363636364
 40
0.6363636363636364
 40
0.6363636363636364
 40
0.6590909090909091
 40
0.6818181818181818
 40
0.6818181818181818
 40
0.6818181818181818
 40
0.7045454545454545
 40
0.7272727272727272
 40
0.7272727272727272
 40
0.7272727272727272
 40
0.75
 40
0.7727272727272726
 40
0.7727272727272726
 40
0.7727272727272726
 40
0.7954545454545455
 40
0.8181818181818179
 40
0.8181818181818179
 40
0.8181818181818179
 40
0.8409090909090906
 40
0.8636363636363634
 40
0.8636363636363634
 40
0.8636363636363634
 40
0.8863636363636361
 40
0.9090909090909088
 40
0.9090909090909088
 40
0.9090909090909088
 40
0.9318181818181814
 40
0.9545454545454543
 40
0.9545454545454543
 40
0.9545454545454543
 40
0.9772727272727268
 40
1.0
 40
1.0
 40
1.0
 40
1.0
 10
805.8154699999999
 20
-119.40747
 30
0.0
 10
805.8154699999999
 20
-119.40747
 30
0.0
 10
806.0027099999999
 20
-119.39159
 30
0.0
 10
806.0027099999999
 20
-119.39159
 30
0.0
 10
806.0027099999999
 20
-119.39159
 30
0.0
 10
806.01657
 20
-119.48284
 30
0.0
 10
806.04867
 20
-119.55111
 30
0.0
 10
806.09903
 20
-119.59707
 30
0.0
 10
806.09903
 20
-119.59707
 30
0.0
 10
806.1497299999999
 20
-119.64304
 30
0.0
 10
806.21056
 20
-119.66602
 30
0.0
 10
806.2818700000001
 20
-119.66602
 30
0.0
 10
806.2818700000001
 20
-119.66602
 30
0.0
 10
806.3677199999997
 20
-119.66602
 30
0.0
 10
806.44038
 20
-119.63358
 30
0.0
 10
806.4995300000001
 20
-119.56902
 30
0.0
 10
806.4995300000001
 20
-119.56902
 30
0.0
 10
806.5590099999997
 20
-119.50413
 30
0.0
 10
806.58875
 20
-119.41829
 30
0.0
 10
806.58875
 20
-119.31149
 30
0.0
 10
806.58875
 20
-119.31149
 30
0.0
 10
806.58875
 20
-119.20976
 30
0.0
 10
806.5603599999999
 20
-119.12966
 30
0.0
 10
806.5032399999999
 20
-119.07086
 30
0.0
 10
806.5032399999999
 20
-119.07086
 30
0.0
 10
806.4461300000001
 20
-119.01205
 30
0.0
 10
806.37144
 20
-118.98265
 30
0.0
 10
806.2788299999999
 20
-118.98265
 30
0.0
 10
806.2788299999999
 20
-118.98265
 30
0.0
 10
806.22138
 20
-118.98265
 30
0.0
 10
806.16967
 20
-118.99583
 30
0.0
 10
806.12337
 20
-119.02185
 30
0.0
 10
806.12337
 20
-119.02185
 30
0.0
 10
806.0770599999997
 20
-119.04787
 30
0.0
 10
806.0408999999998
 20
-119.08167
 30
0.0
 10
806.0145399999999
 20
-119.12324
 30
0.0
 10
806.0145399999999
 20
-119.12324
 30
0.0
 10
806.0145399999999
 20
-119.12324
 30
0.0
 10
805.8472400000001
 20
-119.10161
 30
0.0
 10
805.8472400000001
 20
-119.10161
 30
0.0
 10
805.8472400000001
 20
-119.10161
 30
0.0
 10
805.8472400000001
 20
-119.10161
 30
0.0
 10
805.98784
 20
-118.35605
 30
0.0
 10
805.98784
 20
-118.35605
 30
0.0
 10
805.98784
 20
-118.35605
 30
0.0
 10
805.98784
 20
-118.35605
 30
0.0
 10
806.7097399999999
 20
-118.35605
 30
0.0
 10
806.7097399999999
 20
-118.35605
 30
0.0
 10
806.7097399999999
 20
-118.35605
 30
0.0
 10
806.7097399999999
 20
-118.35605
 30
0.0
 10
806.7097399999999
 20
-118.52639
 30
0.0
 10
806.7097399999999
 20
-118.52639
 30
0.0
 10
806.7097399999999
 20
-118.52639
 30
0.0
 10
806.7097399999999
 20
-118.52639
 30
0.0
 10
806.1304599999997
 20
-118.52639
 30
0.0
 10
806.1304599999997
 20
-118.52639
 30
0.0
 10
806.1304599999997
 20
-118.52639
 30
0.0
 10
806.1304599999997
 20
-118.52639
 30
0.0
 10
806.05205
 20
-118.9164
 30
0.0
 10
806.05205
 20
-118.9164
 30
0.0
 10
806.05205
 20
-118.9164
 30
0.0
 10
806.13925
 20
-118.85557
 30
0.0
 10
806.2308399999999
 20
-118.82515
 30
0.0
 10
806.32649
 20
-118.82515
 30
0.0
 10
806.32649
 20
-118.82515
 30
0.0
 10
806.45322
 20
-118.82515
 30
0.0
 10
806.56002
 20
-118.86909
 30
0.0
 10
806.6472199999997
 20
-118.95696
 30
0.0
 10
806.6472199999997
 20
-118.95696
 30
0.0
 10
806.7344099999997
 20
-119.04483
 30
0.0
 10
806.77801
 20
-119.15771
 30
0.0
 10
806.77801
 20
-119.29561
 30
0.0
 10
806.77801
 20
-119.29561
 30
0.0
 10
806.77801
 20
-119.42708
 30
0.0
 10
806.7394799999997
 20
-119.54063
 30
0.0
 10
806.6630999999999
 20
-119.63628
 30
0.0
 10
806.6630999999999
 20
-119.63628
 30
0.0
 10
806.5698199999998
 20
-119.75356
 30
0.0
 10
806.44275
 20
-119.81236
 30
0.0
 10
806.2818700000001
 20
-119.81236
 30
0.0
 10
806.2818700000001
 20
-119.81236
 30
0.0
 10
806.1497299999999
 20
-119.81236
 30
0.0
 10
806.0419099999998
 20
-119.77552
 30
0.0
 10
805.95844
 20
-119.70151
 30
0.0
 10
805.95844
 20
-119.70151
 30
0.0
 10
805.87496
 20
-119.62749
 30
0.0
 10
805.8272999999998
 20
-119.52948
 30
0.0
 10
805.8154699999999
 20
-119.40747
 30
0.0
  0
SPLINE
  5
8A
330
1F
100
AcDbEntity
  8
layer 1
 62
     7
100
AcDbSpline
210
0.0
220
0.0
230
1.0
 70
    11
 71
     3
 72
    68
 73
    64
 74
     0
 42
0.0000000001
 43
0.0000000001
 40
0.0
 40
0.0
 40
0.0
 40
0.0
 40
0.0625
 40
0.0625
 40
0.0625
 40
0.09375
 40
0.125
 40
0.125
 40
0.125
 40
0.15625
 40
0.1875
 40
0.1875
 40
0.1875
 40
0.21875
 40
0.25
 40
0.25
 40
0.25
 40
0.28125
 40
0.3125
 40
0.3125
 40
0.3125
 40
0.34375
 40
0.375
 40
0.375
 40
0.375
 40
0.40625
 40
0.4375
 40
0.4375
 40
0.4375
 40
0.46875
 40
0.5
 40
0.5
 40
0.5
 40
0.53125
 40
0.5625
 40
0.5625
 40
0.5625
 40
0.59375
 40
0.625
 40
0.625
 40
0.625
 40
0.65625
 40
0.6875
 40
0.6875
 40
0.6875
 40
0.71875
 40
0.75
 40
0.75
 40
0.75
 40
0.78125
 40
0.8125
 40
0.8125
 40
0.8125
 40
0.84375
 40
0.875
 40
0.875
 40
0.875
 40
0.90625
 40
0.9375
 40
0.9375
 40
0.9375
 40
0.96875
 40
1.0
 40
1.0
 40
1.0
 40
1.0
 10
806.9805999999998
 20
-119.78769
 30
0.0
 10
806.9805999999998
 20
-119.78769
 30
0.0
 10
807.5422999999997
 20
-119.03131
 30
0.0
 10
807.5422999999997
 20
-119.03131
 30
0.0
 10
807.5422999999997
 20
-119.03131
 30
0.0
 10
807.5422999999997
 20
-119.03131
 30
0.0
 10
807.0471799999998
 20
-118.33611
 30
0.0
 10
807.0471799999998
 20
-118.33611
 30
0.0
 10
807.0471799999998
 20
-118.33611
 30
0.0
 10
807.0471799999998
 20
-118.33611
 30
0.0
 10
807.27565
 20
-118.33611
 30
0.0
 10
807.27565
 20
-118.33611
 30
0.0
 10
807.27565
 20
-118.33611
 30
0.0
 10
807.27565
 20
-118.33611
 30
0.0
 10
807.53926
 20
-118.70855
 30
0.0
 10
807.53926
 20
-118.70855
 30
0.0
 10
807.53926
 20
-118.70855
 30
0.0
 10
807.5940099999998
 20
-118.78561
 30
0.0
 10
807.63288
 20
-118.84509
 30
0.0
 10
807.65586
 20
-118.88666
 30
0.0
 10
807.65586
 20
-118.88666
 30
0.0
 10
807.6883099999999
 20
-118.83394
 30
0.0
 10
807.7265
 20
-118.77885
 30
0.0
 10
807.7707699999999
 20
-118.72139
 30
0.0
 10
807.7707699999999
 20
-118.72139
 30
0.0
 10
807.7707699999999
 20
-118.72139
 30
0.0
 10
808.06312
 20
-118.33611
 30
0.0
 10
808.06312
 20
-118.33611
 30
0.0
 10
808.06312
 20
-118.33611
 30
0.0
 10
808.06312
 20
-118.33611
 30
0.0
 10
808.2719799999999
 20
-118.33611
 30
0.0
 10
808.2719799999999
 20
-118.33611
 30
0.0
 10
808.2719799999999
 20
-118.33611
 30
0.0
 10
808.2719799999999
 20
-118.33611
 30
0.0
 10
807.76198
 20
-119.02016
 30
0.0
 10
807.76198
 20
-119.02016
 30
0.0
 10
807.76198
 20
-119.02016
 30
0.0
 10
807.76198
 20
-119.02016
 30
0.0
 10
808.3115199999998
 20
-119.78769
 30
0.0
 10
808.3115199999998
 20
-119.78769
 30
0.0
 10
808.3115199999998
 20
-119.78769
 30
0.0
 10
808.3115199999998
 20
-119.78769
 30
0.0
 10
808.0739300000001
 20
-119.78769
 30
0.0
 10
808.0739300000001
 20
-119.78769
 30
0.0
 10
808.0739300000001
 20
-119.78769
 30
0.0
 10
808.0739300000001
 20
-119.78769
 30
0.0
 10
807.70858
 20
-119.26992
 30
0.0
 10
807.70858
 20
-119.26992
 30
0.0
 10
807.70858
 20
-119.26992
 30
0.0
 10
807.6879699999999
 20
-119.24018
 30
0.0
 10
807.6670099999999
 20
-119.20773
 30
0.0
 10
807.6450499999998
 20
-119.17292
 30
0.0
 10
807.6450499999998
 20
-119.17292
 30
0.0
 10
807.6126
 20
-119.22565
 30
0.0
 10
807.5896199999997
 20
-119.26181
 30
0.0
 10
807.5757599999999
 20
-119.28175
 30
0.0
 10
807.5757599999999
 20
-119.28175
 30
0.0
 10
807.5757599999999
 20
-119.28175
 30
0.0
 10
807.2114299999999
 20
-119.78769
 30
0.0
 10
807.2114299999999
 20
-119.78769
 30
0.0
 10
807.2114299999999
 20
-119.78769
 30
0.0
 10
807.2114299999999
 20
-119.78769
 30
0.0
 10
806.9805999999998
 20
-119.78769
 30
0.0
 10
806.9805999999998
 20
-119.78769
 30
0.0
  0
SPLINE
  5
8B
330
1F
100
AcDbEntity
  8
layer 1
 62
     7
100
AcDbSpline
210
0.0
220
0.0
230
1.0
 70
     9
 71
     3
 72
   124
 73
   120
 74
     0
 42
0.0000000001
 43
0.0000000001
 40
0.0
 40
0.0
 40
0.0
 40
0.0
 40
0.0333333333333333
 40
0.0333333333333333
 40
0.0333333333333333
 40
0.05
 40
0.0666666666666667
 40
0.0666666666666667
 40
0.0666666666666667
 40
0.0833333333333334
 40
0.1
 40
0.1
 40
0.1
 40
0.1166666666666667
 40
0.1333333333333333
 40
0.1333333333333333
 40
0.1333333333333333
 40
0.15
 40
0.1666666666666666
 40
0.1666666666666666
 40
0.1666666666666666
 40
0.1833333333333333
 40
0.2
 40
0.2
 40
0.2
 40
0.2166666666666666
 40
0.2333333333333333
 40
0.2333333333333333
 40
0.2333333333333333
 40
0.25
 40
0.2666666666666666
 40
0.2666666666666666
 40
0.2666666666666666
 40
0.2833333333333333
 40
0.3
 40
0.3
 40
0.3
 40
0.3166666666666666
 40
0.3333333333333333
 40
0.3333333333333333
 40
0.3333333333333333
 40
0.35
 40
0.3666666666666666
 40
0.3666666666666666
 40
0.3666666666666666
 40
0.3833333333333333
 40
0.4
 40
0.4
 40
0.4
 40
0.4166666666666666
 40
0.4333333333333333
 40
0.4333333333333333
 40
0.4333333333333333
 40
0.45
 40
0.4666666666666666
 40
0.4666666666666666
 40
0.4666666666666666
 40
0.4833333333333333
 40
0.5
 40
0.5
 40
0.5
 40
0.5166666666666666
 40
0.5333333333333333
 40
0.5333333333333333
 40
0.5333333333333333
 40
0.55
 40
0.5666666666666666
 40
0.5666666666666666
 40
0.5666666666666666
 40
0.5833333333333333
 40
0.6
 40
0.6
 40
0.6
 40
0.6166666666666667
 40
0.6333333333333333
 40
0.6333333333333333
 40
0.6333333333333333
 40
0.65
 40
0.6666666666666666
 40
0.6666666666666666
 40
0.6666666666666666
 40
0.6833333333333334
 40
0.7
 40
0.7
 40
0.7
 40
0.7166666666666666
 40
0.7333333333333333
 40
0.7333333333333333
 40
0.7333333333333333
 40
0.75
 40
0.7666666666666666
 40
0.7666666666666666
 40
0.7666666666666666
 40
0.7833333333333333
 40
0.8
 40
0.8
 40
0.8
 40
0.8166666666666666
 40
0.8333333333333332
 40
0.8333333333333332
 40
0.8333333333333332
 40
0.8499999999999998
 40
0.8666666666666666
 40
0.8666666666666666
 40
0.8666666666666666
 40
0.8833333333333332
 40
0.9
 40
0.9
 40
0.9
 40
0.9166666666666664
 40
0.9333333333333332
 40
0.9333333333333332
 40
0.9333333333333332
 40
0.95
 40
0.9666666666666666
 40
0.9666666666666666
 40
0.9666666666666666
 40
0.9833333333333332
 40
1.0
 40
1.0
 40
1.0
 40
1.0
 10
808.52222
 20
-119.40443
 30
0.0
 10
808.52222
 20
-119.40443
 30
0.0
 10
808.7003300000001
 20
-119.38077
 30
0.0
 10
808.7003300000001
 20
-119.38077
 30
0.0
 10
808.7003300000001
 20
-119.38077
 30
0.0
 10
808.72094
 20
-119.48183
 30
0.0
 10
808.75576
 20
-119.55449
 30
0.0
 10
808.8047599999999
 20
-119.5991
 30
0.0
 10
808.8047599999999
 20
-119.5991
 30
0.0
 10
808.8541000000001
 20
-119.64371
 30
0.0
 10
808.9139300000001
 20
-119.66602
 30
0.0
 10
808.98456
 20
-119.66602
 30
0.0
 10
808.98456
 20
-119.66602
 30
0.0
 10
809.0683799999998
 20
-119.66602
 30
0.0
 10
809.13935
 20
-119.63696
 30
0.0
 10
809.19714
 20
-119.57882
 30
0.0
 10
809.19714
 20
-119.57882
 30
0.0
 10
809.2546
 20
-119.52069
 30
0.0
 10
809.28366
 20
-119.44871
 30
0.0
 10
809.28366
 20
-119.36286
 30
0.0
 10
809.28366
 20
-119.36286
 30
0.0
 10
809.28366
 20
-119.28107
 30
0.0
 10
809.25697
 20
-119.21348
 30
0.0
 10
809.20357
 20
-119.16042
 30
0.0
 10
809.20357
 20
-119.16042
 30
0.0
 10
809.1498299999997
 20
-119.10736
 30
0.0
 10
809.0818999999997
 20
-119.08066
 30
0.0
 10
808.9994299999997
 20
-119.08066
 30
0.0
 10
808.9994299999997
 20
-119.08066
 30
0.0
 10
808.96564
 20
-119.08066
 30
0.0
 10
808.92373
 20
-119.08742
 30
0.0
 10
808.8737099999999
 20
-119.1006
 30
0.0
 10
808.8737099999999
 20
-119.1006
 30
0.0
 10
808.8737099999999
 20
-119.1006
 30
0.0
 10
808.8936499999999
 20
-118.94412
 30
0.0
 10
808.8936499999999
 20
-118.94412
 30
0.0
 10
808.8936499999999
 20
-118.94412
 30
0.0
 10
808.9054799999999
 20
-118.94547
 30
0.0
 10
808.91494
 20
-118.94614
 30
0.0
 10
808.9223699999999
 20
-118.94614
 30
0.0
 10
808.9223699999999
 20
-118.94614
 30
0.0
 10
808.9980799999999
 20
-118.94614
 30
0.0
 10
809.0663500000001
 20
-118.9262
 30
0.0
 10
809.1271799999997
 20
-118.88666
 30
0.0
 10
809.1271799999997
 20
-118.88666
 30
0.0
 10
809.18802
 20
-118.84712
 30
0.0
 10
809.21844
 20
-118.78595
 30
0.0
 10
809.21844
 20
-118.70348
 30
0.0
 10
809.21844
 20
-118.70348
 30
0.0
 10
809.21844
 20
-118.63825
 30
0.0
 10
809.1961300000001
 20
-118.58384
 30
0.0
 10
809.1518599999998
 20
-118.54126
 30
0.0
 10
809.1518599999998
 20
-118.54126
 30
0.0
 10
809.10758
 20
-118.49833
 30
0.0
 10
809.05047
 20
-118.4767
 30
0.0
 10
808.9805099999999
 20
-118.4767
 30
0.0
 10
808.9805099999999
 20
-118.4767
 30
0.0
 10
808.9112199999997
 20
-118.4767
 30
0.0
 10
808.85343
 20
-118.49867
 30
0.0
 10
808.8074699999998
 20
-118.54193
 30
0.0
 10
808.8074699999998
 20
-118.54193
 30
0.0
 10
808.76116
 20
-118.58553
 30
0.0
 10
808.7314199999998
 20
-118.6511
 30
0.0
 10
808.7182399999997
 20
-118.73829
 30
0.0
 10
808.7182399999997
 20
-118.73829
 30
0.0
 10
808.7182399999997
 20
-118.73829
 30
0.0
 10
808.5401299999999
 20
-118.70652
 30
0.0
 10
808.5401299999999
 20
-118.70652
 30
0.0
 10
808.5401299999999
 20
-118.70652
 30
0.0
 10
808.5617599999999
 20
-118.58688
 30
0.0
 10
808.6114399999999
 20
-118.49428
 30
0.0
 10
808.6885
 20
-118.42871
 30
0.0
 10
808.6885
 20
-118.42871
 30
0.0
 10
808.76589
 20
-118.36315
 30
0.0
 10
808.8618799999998
 20
-118.33003
 30
0.0
 10
808.97679
 20
-118.33003
 30
0.0
 10
808.97679
 20
-118.33003
 30
0.0
 10
809.05587
 20
-118.33003
 30
0.0
 10
809.1288699999999
 20
-118.34726
 30
0.0
 10
809.1954499999998
 20
-118.38106
 30
0.0
 10
809.1954499999998
 20
-118.38106
 30
0.0
 10
809.26203
 20
-118.41519
 30
0.0
 10
809.3130699999997
 20
-118.4615
 30
0.0
 10
809.3485600000001
 20
-118.5203
 30
0.0
 10
809.3485600000001
 20
-118.5203
 30
0.0
 10
809.3837
 20
-118.57911
 30
0.0
 10
809.40162
 20
-118.6413
 30
0.0
 10
809.40162
 20
-118.70754
 30
0.0
 10
809.40162
 20
-118.70754
 30
0.0
 10
809.40162
 20
-118.77006
 30
0.0
 10
809.38472
 20
-118.82718
 30
0.0
 10
809.3509199999997
 20
-118.87889
 30
0.0
 10
809.3509199999997
 20
-118.87889
 30
0.0
 10
809.31712
 20
-118.93026
 30
0.0
 10
809.2674399999998
 20
-118.97115
 30
0.0
 10
809.2015400000001
 20
-119.00157
 30
0.0
 10
809.2015400000001
 20
-119.00157
 30
0.0
 10
809.2873799999999
 20
-119.02117
 30
0.0
 10
809.3539599999997
 20
-119.06241
 30
0.0
 10
809.40162
 20
-119.12493
 30
0.0
 10
809.40162
 20
-119.12493
 30
0.0
 10
809.4489300000001
 20
-119.18712
 30
0.0
 10
809.47259
 20
-119.26519
 30
0.0
 10
809.47259
 20
-119.35881
 30
0.0
 10
809.47259
 20
-119.35881
 30
0.0
 10
809.47259
 20
-119.48554
 30
0.0
 10
809.4266300000001
 20
-119.59302
 30
0.0
 10
809.33402
 20
-119.68123
 30
0.0
 10
809.33402
 20
-119.68123
 30
0.0
 10
809.24176
 20
-119.76944
 30
0.0
 10
809.12482
 20
-119.81338
 30
0.0
 10
808.9835500000001
 20
-119.81338
 30
0.0
 10
808.9835500000001
 20
-119.81338
 30
0.0
 10
808.85613
 20
-119.81338
 30
0.0
 10
808.75035
 20
-119.77552
 30
0.0
 10
808.6661900000001
 20
-119.69948
 30
0.0
 10
808.6661900000001
 20
-119.69948
 30
0.0
 10
808.5820399999999
 20
-119.62377
 30
0.0
 10
808.5340499999999
 20
-119.52543
 30
0.0
 10
808.52222
 20
-119.40443
 30
0.0
  0
SPLINE
  5
8C
330
1F
100
AcDbEntity
  8
layer 1
 62
     7
100
AcDbSpline
210
0.0
220
0.0
230
1.0
 70
     9
 71
     3
 72
    52
 73
    48
 74
     0
 42
0.0000000001
 43
0.0000000001
 40
0.0
 40
0.0
 40
0.0
 40
0.0
 40
0.0833333333333333
 40
0.0833333333333333
 40
0.0833333333333333
 40
0.125
 40
0.1666666666666666
 40
0.1666666666666666
 40
0.1666666666666666
 40
0.2083333333333333
 40
0.25
 40
0.25
 40
0.25
 40
0.2916666666666666
 40
0.3333333333333333
 40
0.3333333333333333
 40
0.3333333333333333
 40
0.375
 40
0.4166666666666666
 40
0.4166666666666666
 40
0.4166666666666666
 40
0.4583333333333333
 40
0.5
 40
0.5
 40
0.5
 40
0.5416666666666666
 40
0.5833333333333333
 40
0.5833333333333333
 40
0.5833333333333333
 40
0.625
 40
0.6666666666666666
 40
0.6666666666666666
 40
0.6666666666666666
 40
0.7083333333333333
 40
0.75
 40
0.75
 40
0.75
 40
0.7916666666666669
 40
0.8333333333333332
 40
0.8333333333333332
 40
0.8333333333333332
 40
0.875
 40
0.9166666666666667
 40
0.9166666666666667
 40
0.9166666666666667
 40
0.9583333333333332
 40
1.0
 40
1.0
 40
1.0
 40
1.0
 10
809.76169
 20
-119.07187
 30
0.0
 10
809.76169
 20
-118.90018
 30
0.0
 10
809.7792699999999
 20
-118.76195
 30
0.0
 10
809.81476
 20
-118.65752
 30
0.0
 10
809.81476
 20
-118.65752
 30
0.0
 10
809.8499
 20
-118.55275
 30
0.0
 10
809.90263
 20
-118.47197
 30
0.0
 10
809.97225
 20
-118.41519
 30
0.0
 10
809.97225
 20
-118.41519
 30
0.0
 10
810.04187
 20
-118.35841
 30
0.0
 10
810.12941
 20
-118.33003
 30
0.0
 10
810.2348500000001
 20
-118.33003
 30
0.0
 10
810.2348500000001
 20
-118.33003
 30
0.0
 10
810.3129199999997
 20
-118.33003
 30
0.0
 10
810.38119
 20
-118.34591
 30
0.0
 10
810.44
 20
-118.37734
 30
0.0
 10
810.44
 20
-118.37734
 30
0.0
 10
810.4988099999998
 20
-118.40843
 30
0.0
 10
810.54714
 20
-118.45372
 30
0.0
 10
810.58567
 20
-118.51287
 30
0.0
 10
810.58567
 20
-118.51287
 30
0.0
 10
810.6238600000001
 20
-118.57201
 30
0.0
 10
810.65394
 20
-118.644
 30
0.0
 10
810.67557
 20
-118.72883
 30
0.0
 10
810.67557
 20
-118.72883
 30
0.0
 10
810.69753
 20
-118.81366
 30
0.0
 10
810.7083499999998
 20
-118.92789
 30
0.0
 10
810.7083499999998
 20
-119.07187
 30
0.0
 10
810.7083499999998
 20
-119.07187
 30
0.0
 10
810.7083499999998
 20
-119.24221
 30
0.0
 10
810.69077
 20
-119.37942
 30
0.0
 10
810.6559599999998
 20
-119.48419
 30
0.0
 10
810.6559599999998
 20
-119.48419
 30
0.0
 10
810.6208099999999
 20
-119.58896
 30
0.0
 10
810.56843
 20
-119.66974
 30
0.0
 10
810.4988099999998
 20
-119.72686
 30
0.0
 10
810.4988099999998
 20
-119.72686
 30
0.0
 10
810.4291899999997
 20
-119.78397
 30
0.0
 10
810.3413099999999
 20
-119.81236
 30
0.0
 10
810.2348500000001
 20
-119.81236
 30
0.0
 10
810.2348500000001
 20
-119.81236
 30
0.0
 10
810.0949299999998
 20
-119.81236
 30
0.0
 10
809.9850899999999
 20
-119.76234
 30
0.0
 10
809.9053300000001
 20
-119.66197
 30
0.0
 10
809.9053300000001
 20
-119.66197
 30
0.0
 10
809.8096899999998
 20
-119.54131
 30
0.0
 10
809.76169
 20
-119.34427
 30
0.0
 10
809.76169
 20
-119.07187
 30
0.0
  0
SPLINE
  5
8D
330
1F
100
AcDbEntity
  8
layer 1
 62
     7
100
AcDbSpline
210
0.0
220
0.0
230
1.0
 70
     9
 71
     3
 72
    36
 73
    32
 74
     0
 42
0.0000000001
 43
0.0000000001
 40
0.0
 40
0.0
 40
0.0
 40
0.0
 40
0.125
 40
0.125
 40
0.125
 40
0.1875
 40
0.25
 40
0.25
 40
0.25
 40
0.3125
 40
0.375
 40
0.375
 40
0.375
 40
0.4375
 40
0.5
 40
0.5
 40
0.5
 40
0.5625
 40
0.625
 40
0.625
 40
0.625
 40
0.6875
 40
0.75
 40
0.75
 40
0.75
 40
0.8125
 40
0.875
 40
0.875
 40
0.875
 40
0.9375
 40
1.0
 40
1.0
 40
1.0
 40
1.0
 10
809.9448699999998
 20
-119.07187
 30
0.0
 10
809.9448699999998
 20
-119.31014
 30
0.0
 10
809.9729299999998
 20
-119.46865
 30
0.0
 10
810.02869
 20
-119.54773
 30
0.0
 10
810.02869
 20
-119.54773
 30
0.0
 10
810.0844599999998
 20
-119.62648
 30
0.0
 10
810.15306
 20
-119.66602
 30
0.0
 10
810.2348500000001
 20
-119.66602
 30
0.0
 10
810.2348500000001
 20
-119.66602
 30
0.0
 10
810.3169799999998
 20
-119.66602
 30
0.0
 10
810.3855899999999
 20
-119.62614
 30
0.0
 10
810.4413500000001
 20
-119.54706
 30
0.0
 10
810.4413500000001
 20
-119.54706
 30
0.0
 10
810.4971199999999
 20
-119.46797
 30
0.0
 10
810.52517
 20
-119.30946
 30
0.0
 10
810.52517
 20
-119.07187
 30
0.0
 10
810.52517
 20
-119.07187
 30
0.0
 10
810.52517
 20
-118.83292
 30
0.0
 10
810.4971199999999
 20
-118.67408
 30
0.0
 10
810.4413500000001
 20
-118.59567
 30
0.0
 10
810.4413500000001
 20
-118.59567
 30
0.0
 10
810.3855899999999
 20
-118.51692
 30
0.0
 10
810.3163
 20
-118.47772
 30
0.0
 10
810.2331599999999
 20
-118.47772
 30
0.0
 10
810.2331599999999
 20
-118.47772
 30
0.0
 10
810.15104
 20
-118.47772
 30
0.0
 10
810.0858099999998
 20
-118.51253
 30
0.0
 10
810.0367999999999
 20
-118.58181
 30
0.0
 10
810.0367999999999
 20
-118.58181
 30
0.0
 10
809.9756300000001
 20
-118.67002
 30
0.0
 10
809.9448699999998
 20
-118.8336
 30
0.0
 10
809.9448699999998
 20
-119.07187
 30
0.0
  0
SPLINE
  5
8E
330
1F
100
AcDbEntity
  8
layer 1
 62
     7
100
AcDbSpline
210
0.0
220
0.0
230
1.0
 70
     9
 71
     3
 72
    92
 73
    88
 74
     0
 42
0.0000000001
 43
0.0000000001
 40
0.0
 40
0.0
 40
0.0
 40
0.0
 40
0.0454545454545455
 40
0.0454545454545455
 40
0.0454545454545455
 40
0.0681818181818182
 40
0.0909090909090909
 40
0.0909090909090909
 40
0.0909090909090909
 40
0.1136363636363636
 40
0.1363636363636363
 40
0.1363636363636363
 40
0.1363636363636363
 40
0.1590909090909091
 40
0.1818181818181818
 40
0.1818181818181818
 40
0.1818181818181818
 40
0.2045454545454545
 40
0.2272727272727273
 40
0.2272727272727273
 40
0.2272727272727273
 40
0.25
 40
0.2727272727272727
 40
0.2727272727272727
 40
0.2727272727272727
 40
0.2954545454545455
 40
0.3181818181818182
 40
0.3181818181818182
 40
0.3181818181818182
 40
0.3409090909090909
 40
0.3636363636363637
 40
0.3636363636363637
 40
0.3636363636363637
 40
0.3863636363636365
 40
0.4090909090909093
 40
0.4090909090909093
 40
0.4090909090909093
 40
0.4318181818181819
 40
0.4545454545454547
 40
0.4545454545454547
 40
0.4545454545454547
 40
0.4772727272727276
 40
0.5000000000000001
 40
0.5000000000000001
 40
0.5000000000000001
 40
0.522727272727273
 40
0.5454545454545455
 40
0.5454545454545455
 40
0.5454545454545455
 40
0.5681818181818184
 40
0.590909090909091
 40
0.590909090909091
 40
0.590909090909091
 40
0.6136363636363637
 40
0.6363636363636364
 40
0.6363636363636364
 40
0.6363636363636364
 40
0.6590909090909091
 40
0.6818181818181818
 40
0.6818181818181818
 40
0.6818181818181818
 40
0.7045454545454545
 40
0.7272727272727272
 40
0.7272727272727272
 40
0.7272727272727272
 40
0.75
 40
0.7727272727272726
 40
0.7727272727272726
 40
0.7727272727272726
 40
0.7954545454545455
 40
0.8181818181818179
 40
0.8181818181818179
 40
0.8181818181818179
 40
0.8409090909090906
 40
0.8636363636363634
 40
0.8636363636363634
 40
0.8636363636363634
 40
0.8863636363636361
 40
0.9090909090909088
 40
0.9090909090909088
 40
0.9090909090909088
 40
0.9318181818181814
 40
0.9545454545454543
 40
0.9545454545454543
 40
0.9545454545454543
 40
0.9772727272727268
 40
1.0
 40
1.0
 40
1.0
 40
1.0
 10
811.00218
 20
-119.40747
 30
0.0
 10
811.00218
 20
-119.40747
 30
0.0
 10
811.18942
 20
-119.39159
 30
0.0
 10
811.18942
 20
-119.39159
 30
0.0
 10
811.18942
 20
-119.39159
 30
0.0
 10
811.2032799999997
 20
-119.48284
 30
0.0
 10
811.2353799999999
 20
-119.55111
 30
0.0
 10
811.2857400000001
 20
-119.59707
 30
0.0
 10
811.2857400000001
 20
-119.59707
 30
0.0
 10
811.33644
 20
-119.64304
 30
0.0
 10
811.3972700000001
 20
-119.66602
 30
0.0
 10
811.46858
 20
-119.66602
 30
0.0
 10
811.46858
 20
-119.66602
 30
0.0
 10
811.5544299999998
 20
-119.66602
 30
0.0
 10
811.6270899999998
 20
-119.63358
 30
0.0
 10
811.68624
 20
-119.56902
 30
0.0
 10
811.68624
 20
-119.56902
 30
0.0
 10
811.74572
 20
-119.50413
 30
0.0
 10
811.7754599999997
 20
-119.41829
 30
0.0
 10
811.7754599999997
 20
-119.31149
 30
0.0
 10
811.7754599999997
 20
-119.31149
 30
0.0
 10
811.7754599999997
 20
-119.20976
 30
0.0
 10
811.74707
 20
-119.12966
 30
0.0
 10
811.6899499999997
 20
-119.07086
 30
0.0
 10
811.6899499999997
 20
-119.07086
 30
0.0
 10
811.63284
 20
-119.01205
 30
0.0
 10
811.5581499999999
 20
-118.98265
 30
0.0
 10
811.46554
 20
-118.98265
 30
0.0
 10
811.46554
 20
-118.98265
 30
0.0
 10
811.4080900000001
 20
-118.98265
 30
0.0
 10
811.3563799999997
 20
-118.99583
 30
0.0
 10
811.3100799999998
 20
-119.02185
 30
0.0
 10
811.3100799999998
 20
-119.02185
 30
0.0
 10
811.26377
 20
-119.04787
 30
0.0
 10
811.2276099999998
 20
-119.08167
 30
0.0
 10
811.20125
 20
-119.12324
 30
0.0
 10
811.20125
 20
-119.12324
 30
0.0
 10
811.20125
 20
-119.12324
 30
0.0
 10
811.03395
 20
-119.10161
 30
0.0
 10
811.03395
 20
-119.10161
 30
0.0
 10
811.03395
 20
-119.10161
 30
0.0
 10
811.03395
 20
-119.10161
 30
0.0
 10
811.1745499999997
 20
-118.35605
 30
0.0
 10
811.1745499999997
 20
-118.35605
 30
0.0
 10
811.1745499999997
 20
-118.35605
 30
0.0
 10
811.1745499999997
 20
-118.35605
 30
0.0
 10
811.89645
 20
-118.35605
 30
0.0
 10
811.89645
 20
-118.35605
 30
0.0
 10
811.89645
 20
-118.35605
 30
0.0
 10
811.89645
 20
-118.35605
 30
0.0
 10
811.89645
 20
-118.52639
 30
0.0
 10
811.89645
 20
-118.52639
 30
0.0
 10
811.89645
 20
-118.52639
 30
0.0
 10
811.89645
 20
-118.52639
 30
0.0
 10
811.31717
 20
-118.52639
 30
0.0
 10
811.31717
 20
-118.52639
 30
0.0
 10
811.31717
 20
-118.52639
 30
0.0
 10
811.31717
 20
-118.52639
 30
0.0
 10
811.2387599999998
 20
-118.9164
 30
0.0
 10
811.2387599999998
 20
-118.9164
 30
0.0
 10
811.2387599999998
 20
-118.9164
 30
0.0
 10
811.3259600000001
 20
-118.85557
 30
0.0
 10
811.4175499999998
 20
-118.82515
 30
0.0
 10
811.5131999999999
 20
-118.82515
 30
0.0
 10
811.5131999999999
 20
-118.82515
 30
0.0
 10
811.6399300000001
 20
-118.82515
 30
0.0
 10
811.7467299999997
 20
-118.86909
 30
0.0
 10
811.83393
 20
-118.95696
 30
0.0
 10
811.83393
 20
-118.95696
 30
0.0
 10
811.92112
 20
-119.04483
 30
0.0
 10
811.9647200000001
 20
-119.15771
 30
0.0
 10
811.9647200000001
 20
-119.29561
 30
0.0
 10
811.9647200000001
 20
-119.29561
 30
0.0
 10
811.9647200000001
 20
-119.42708
 30
0.0
 10
811.9261899999997
 20
-119.54063
 30
0.0
 10
811.84981
 20
-119.63628
 30
0.0
 10
811.84981
 20
-119.63628
 30
0.0
 10
811.75653
 20
-119.75356
 30
0.0
 10
811.6294599999999
 20
-119.81236
 30
0.0
 10
811.46858
 20
-119.81236
 30
0.0
 10
811.46858
 20
-119.81236
 30
0.0
 10
811.33644
 20
-119.81236
 30
0.0
 10
811.2286199999998
 20
-119.77552
 30
0.0
 10
811.1451499999997
 20
-119.70151
 30
0.0
 10
811.1451499999997
 20
-119.70151
 30
0.0
 10
811.0616700000001
 20
-119.62749
 30
0.0
 10
811.01401
 20
-119.52948
 30
0.0
 10
811.00218
 20
-119.40747
 30
0.0
  0
SPLINE
  5
8F
330
1F
100
AcDbEntity
  8
layer 1
 62
     7
100
AcDbSpline
210
0.0
220
0.0
230
1.0
 70
    11
 71
     3
 72
    64
 73
    60
 74
     0
 42
0.0000000001
 43
0.0000000001
 40
0.0
 40
0.0
 40
0.0
 40
0.0
 40
0.0666666666666667
 40
0.0666666666666667
 40
0.0666666666666667
 40
0.1
 40
0.1333333333333333
 40
0.1333333333333333
 40
0.1333333333333333
 40
0.1666666666666667
 40
0.2
 40
0.2
 40
0.2
 40
0.2333333333333333
 40
0.2666666666666666
 40
0.2666666666666666
 40
0.2666666666666666
 40
0.3
 40
0.3333333333333333
 40
0.3333333333333333
 40
0.3333333333333333
 40
0.3666666666666666
 40
0.4
 40
0.4
 40
0.4
 40
0.4333333333333333
 40
0.4666666666666666
 40
0.4666666666666666
 40
0.4666666666666666
 40
0.5
 40
0.5333333333333333
 40
0.5333333333333333
 40
0.5333333333333333
 40
0.5666666666666666
 40
0.6
 40
0.6
 40
0.6
 40
0.6333333333333333
 40
0.6666666666666666
 40
0.6666666666666666
 40
0.6666666666666666
 40
0.7
 40
0.7333333333333333
 40
0.7333333333333333
 40
0.7333333333333333
 40
0.7666666666666666
 40
0.8
 40
0.8
 40
0.8
 40
0.8333333333333332
 40
0.8666666666666666
 40
0.8666666666666666
 40
0.8666666666666666
 40
0.9
 40
0.9333333333333332
 40
0.9333333333333332
 40
0.9333333333333332
 40
0.9666666666666666
 40
1.0
 40
1.0
 40
1.0
 40
1.0
 10
812.3089199999999
 20
-119.78769
 30
0.0
 10
812.3089199999999
 20
-119.78769
 30
0.0
 10
812.3089199999999
 20
-118.33611
 30
0.0
 10
812.3089199999999
 20
-118.33611
 30
0.0
 10
812.3089199999999
 20
-118.33611
 30
0.0
 10
812.3089199999999
 20
-118.33611
 30
0.0
 10
812.5982199999999
 20
-118.33611
 30
0.0
 10
812.5982199999999
 20
-118.33611
 30
0.0
 10
812.5982199999999
 20
-118.33611
 30
0.0
 10
812.5982199999999
 20
-118.33611
 30
0.0
 10
812.9416
 20
-119.36388
 30
0.0
 10
812.9416
 20
-119.36388
 30
0.0
 10
812.9416
 20
-119.36388
 30
0.0
 10
812.97337
 20
-119.45952
 30
0.0
 10
812.9966899999997
 20
-119.53117
 30
0.0
 10
813.0108799999998
 20
-119.57882
 30
0.0
 10
813.0108799999998
 20
-119.57882
 30
0.0
 10
813.0274399999999
 20
-119.5261
 30
0.0
 10
813.0531299999999
 20
-119.44837
 30
0.0
 10
813.08828
 20
-119.34596
 30
0.0
 10
813.08828
 20
-119.34596
 30
0.0
 10
813.08828
 20
-119.34596
 30
0.0
 10
813.4357099999999
 20
-118.33611
 30
0.0
 10
813.4357099999999
 20
-118.33611
 30
0.0
 10
813.4357099999999
 20
-118.33611
 30
0.0
 10
813.4357099999999
 20
-118.33611
 30
0.0
 10
813.6942599999999
 20
-118.33611
 30
0.0
 10
813.6942599999999
 20
-118.33611
 30
0.0
 10
813.6942599999999
 20
-118.33611
 30
0.0
 10
813.6942599999999
 20
-118.33611
 30
0.0
 10
813.6942599999999
 20
-119.78769
 30
0.0
 10
813.6942599999999
 20
-119.78769
 30
0.0
 10
813.6942599999999
 20
-119.78769
 30
0.0
 10
813.6942599999999
 20
-119.78769
 30
0.0
 10
813.50905
 20
-119.78769
 30
0.0
 10
813.50905
 20
-119.78769
 30
0.0
 10
813.50905
 20
-119.78769
 30
0.0
 10
813.50905
 20
-119.78769
 30
0.0
 10
813.50905
 20
-118.57269
 30
0.0
 10
813.50905
 20
-118.57269
 30
0.0
 10
813.50905
 20
-118.57269
 30
0.0
 10
813.50905
 20
-118.57269
 30
0.0
 10
813.08726
 20
-119.78769
 30
0.0
 10
813.08726
 20
-119.78769
 30
0.0
 10
813.08726
 20
-119.78769
 30
0.0
 10
813.08726
 20
-119.78769
 30
0.0
 10
812.9138799999997
 20
-119.78769
 30
0.0
 10
812.9138799999997
 20
-119.78769
 30
0.0
 10
812.9138799999997
 20
-119.78769
 30
0.0
 10
812.9138799999997
 20
-119.78769
 30
0.0
 10
812.49412
 20
-118.55207
 30
0.0
 10
812.49412
 20
-118.55207
 30
0.0
 10
812.49412
 20
-118.55207
 30
0.0
 10
812.49412
 20
-118.55207
 30
0.0
 10
812.49412
 20
-119.78769
 30
0.0
 10
812.49412
 20
-119.78769
 30
0.0
 10
812.49412
 20
-119.78769
 30
0.0
 10
812.49412
 20
-119.78769
 30
0.0
 10
812.3089199999999
 20
-119.78769
 30
0.0
 10
812.3089199999999
 20
-119.78769
 30
0.0
  0
SPLINE
  5
90
330
1F
100
AcDbEntity
  8
layer 1
 62
     7
100
AcDbSpline
210
0.0
220
0.0
230
1.0
 70
    11
 71
     3
 72
    64
 73
    60
 74
     0
 42
0.0000000001
 43
0.0000000001
 40
0.0
 40
0.0
 40
0.0
 40
0.0
 40
0.0666666666666667
 40
0.0666666666666667
 40
0.0666666666666667
 40
0.1
 40
0.1333333333333333
 40
0.1333333333333333
 40
0.1333333333333333
 40
0.1666666666666667
 40
0.2
 40
0.2
 40
0.2
 40
0.2333333333333333
 40
0.2666666666666666
 40
0.2666666666666666
 40
0.2666666666666666
 40
0.3
 40
0.3333333333333333
 40
0.3333333333333333
 40
0.3333333333333333
 40
0.3666666666666666
 40
0.4
 40
0.4
 40
0.4
 40
0.4333333333333333
 40
0.4666666666666666
 40
0.4666666666666666
 40
0.4666666666666666
 40
0.5
 40
0.5333333333333333
 40
0.5333333333333333
 40
0.5333333333333333
 40
0.5666666666666666
 40
0.6
 40
0.6
 40
0.6
 40
0.6333333333333333
 40
0.6666666666666666
 40
0.6666666666666666
 40
0.6666666666666666
 40
0.7
 40
0.7333333333333333
 40
0.7333333333333333
 40
0.7333333333333333
 40
0.7666666666666666
 40
0.8
 40
0.8
 40
0.8
 40
0.8333333333333332
 40
0.8666666666666666
 40
0.8666666666666666
 40
0.8666666666666666
 40
0.9
 40
0.9333333333333332
 40
0.9333333333333332
 40
0.9333333333333332
 40
0.9666666666666666
 40
1.0
 40
1.0
 40
1.0
 40
1.0
 10
814.11077
 20
-119.78769
 30
0.0
 10
814.11077
 20
-119.78769
 30
0.0
 10
814.11077
 20
-118.33611
 30
0.0
 10
814.11077
 20
-118.33611
 30
0.0
 10
814.11077
 20
-118.33611
 30
0.0
 10
814.11077
 20
-118.33611
 30
0.0
 10
814.4000700000001
 20
-118.33611
 30
0.0
 10
814.4000700000001
 20
-118.33611
 30
0.0
 10
814.4000700000001
 20
-118.33611
 30
0.0
 10
814.4000700000001
 20
-118.33611
 30
0.0
 10
814.7434500000001
 20
-119.36388
 30
0.0
 10
814.7434500000001
 20
-119.36388
 30
0.0
 10
814.7434500000001
 20
-119.36388
 30
0.0
 10
814.7752199999999
 20
-119.45952
 30
0.0
 10
814.7985399999999
 20
-119.53117
 30
0.0
 10
814.81273
 20
-119.57882
 30
0.0
 10
814.81273
 20
-119.57882
 30
0.0
 10
814.8292899999999
 20
-119.5261
 30
0.0
 10
814.8549799999997
 20
-119.44837
 30
0.0
 10
814.89013
 20
-119.34596
 30
0.0
 10
814.89013
 20
-119.34596
 30
0.0
 10
814.89013
 20
-119.34596
 30
0.0
 10
815.2375599999999
 20
-118.33611
 30
0.0
 10
815.2375599999999
 20
-118.33611
 30
0.0
 10
815.2375599999999
 20
-118.33611
 30
0.0
 10
815.2375599999999
 20
-118.33611
 30
0.0
 10
815.4961100000001
 20
-118.33611
 30
0.0
 10
815.4961100000001
 20
-118.33611
 30
0.0
 10
815.4961100000001
 20
-118.33611
 30
0.0
 10
815.4961100000001
 20
-118.33611
 30
0.0
 10
815.4961100000001
 20
-119.78769
 30
0.0
 10
815.4961100000001
 20
-119.78769
 30
0.0
 10
815.4961100000001
 20
-119.78769
 30
0.0
 10
815.4961100000001
 20
-119.78769
 30
0.0
 10
815.3108999999997
 20
-119.78769
 30
0.0
 10
815.3108999999997
 20
-119.78769
 30
0.0
 10
815.3108999999997
 20
-119.78769
 30
0.0
 10
815.3108999999997
 20
-119.78769
 30
0.0
 10
815.3108999999997
 20
-118.57269
 30
0.0
 10
815.3108999999997
 20
-118.57269
 30
0.0
 10
815.3108999999997
 20
-118.57269
 30
0.0
 10
815.3108999999997
 20
-118.57269
 30
0.0
 10
814.88911
 20
-119.78769
 30
0.0
 10
814.88911
 20
-119.78769
 30
0.0
 10
814.88911
 20
-119.78769
 30
0.0
 10
814.88911
 20
-119.78769
 30
0.0
 10
814.7157299999999
 20
-119.78769
 30
0.0
 10
814.7157299999999
 20
-119.78769
 30
0.0
 10
814.7157299999999
 20
-119.78769
 30
0.0
 10
814.7157299999999
 20
-119.78769
 30
0.0
 10
814.29597
 20
-118.55207
 30
0.0
 10
814.29597
 20
-118.55207
 30
0.0
 10
814.29597
 20
-118.55207
 30
0.0
 10
814.29597
 20
-118.55207
 30
0.0
 10
814.29597
 20
-119.78769
 30
0.0
 10
814.29597
 20
-119.78769
 30
0.0
 10
814.29597
 20
-119.78769
 30
0.0
 10
814.29597
 20
-119.78769
 30
0.0
 10
814.11077
 20
-119.78769
 30
0.0
 10
814.11077
 20
-119.78769
 30
0.0
  0
MTEXT
  5
CC
330
1F
100
AcDbEntity
  8
0
100
AcDbMText
 10
792.4984813654297
 20
-89.07411263435415
 30
0.0
 40
1.439999999999999
 41
23.5369465600636
 46
0.0
 71
     1
 72
     5
  1
{\C7;TECO MODEL #9606}
 73
     1
 44
1.0
1001
ACAD
1000
ACAD_MTEXT_COLUMN_INFO_BEGIN
1070
    75
1070
     2
1070
    79
1070
     0
1070
    76
1070
     1
1070
    78
1070
     0
1070
    48
1040
23.5369465600636
1070
    49
1040
1.0
1070
    50
1070
     1
1040
0.0
1000
ACAD_MTEXT_COLUMN_INFO_END
  0
ENDSEC
  0
SECTION
  2
OBJECTS
  0
DICTIONARY
  5
C
330
0
100
AcDbDictionary
281
     1
  3
ACAD_CIP_PREVIOUS_PRODUCT_INFO
350
BD
  3
ACAD_COLOR
350
B7
  3
ACAD_GROUP
350
D
  3
ACAD_LAYOUT
350
1A
  3
ACAD_MATERIAL
350
94
  3
ACAD_MLEADERSTYLE
350
92
  3
ACAD_MLINESTYLE
350
17
  3
ACAD_PLOTSETTINGS
350
19
  3
ACAD_PLOTSTYLENAME
350
E
  3
ACAD_SCALELIST
350
3B
  3
ACAD_TABLESTYLE
350
91
  3
ACAD_VISUALSTYLE
350
2A
  3
ACDB_RECOMPOSE_DATA
350
15A
  3
AcDbVariableDictionary
350
D2
  0
DICTIONARY
  5
C2
330
2
100
AcDbDictionary
280
     1
281
     1
  3
ACAD_LAYERSTATES
360
C3
  0
DICTIONARY
  5
CD
330
10
100
AcDbDictionary
280
     1
281
     1
  3
ADSK_XREC_LAYER_RECONCILED
360
CE
  0
DICTIONARY
  5
CF
330
5E
100
AcDbDictionary
280
     1
281
     1
  3
ADSK_XREC_LAYER_RECONCILED
360
D0
  0
DICTIONARY
  5
BF
330
BE
100
AcDbDictionary
280
     1
281
     1
  3
ADSK_XREC_LAYER_RECONCILED
360
D1
  0
XRECORD
  5
BD
102
{ACAD_REACTORS
330
C
102
}
330
C
100
AcDbXrecord
280
     1
300
ACD
300
2012
300
ACD_F_S
  0
DICTIONARY
  5
B7
102
{ACAD_REACTORS
330
C
102
}
330
C
100
AcDbDictionary
281
     1
  0
DICTIONARY
  5
D
102
{ACAD_REACTORS
330
C
102
}
330
C
100
AcDbDictionary
281
     1
  0
DICTIONARY
  5
1A
102
{ACAD_REACTORS
330
C
102
}
330
C
100
AcDbDictionary
281
     1
  3
Layout1
350
1E
  3
Layout2
350
26
  3
Model
350
22
  0
DICTIONARY
  5
94
102
{ACAD_REACTORS
330
C
102
}
330
C
100
AcDbDictionary
281
     1
  3
ByBlock
350
9D
  3
ByLayer
350
95
  3
Global
350
A5
  0
DICTIONARY
  5
92
102
{ACAD_REACTORS
330
C
102
}
330
C
100
AcDbDictionary
281
     1
  3
Standard
350
B9
  0
DICTIONARY
  5
17
102
{ACAD_REACTORS
330
C
102
}
330
C
100
AcDbDictionary
281
     1
  3
Standard
350
18
  0
DICTIONARY
  5
19
102
{ACAD_REACTORS
330
C
102
}
330
C
100
AcDbDictionary
281
     1
  0
ACDBDICTIONARYWDFLT
  5
E
102
{ACAD_REACTORS
330
C
102
}
330
C
100
AcDbDictionary
281
     1
  3
Normal
350
F
100
AcDbDictionaryWithDefault
340
F
  0
DICTIONARY
  5
3B
102
{ACAD_REACTORS
330
C
102
}
330
C
100
AcDbDictionary
281
     1
  3
A0
350
3C
  3
A1
350
3D
  3
A2
350
3E
  3
A3
350
3F
  3
A4
350
40
  3
A5
350
41
  3
A6
350
42
  3
A7
350
43
  3
A8
350
44
  3
A9
350
45
  3
B0
350
46
  3
B1
350
47
  3
B2
350
48
  3
B3
350
49
  3
B4
350
4A
  3
B5
350
4B
  3
B6
350
4C
  3
B7
350
4D
  3
B8
350
4E
  3
B9
350
4F
  3
C0
350
50
  3
C1
350
51
  3
C2
350
52
  3
C3
350
53
  3
C4
350
54
  3
C5
350
55
  3
C6
350
56
  3
C7
350
57
  3
C8
350
58
  3
C9
350
59
  3
D0
350
5A
  3
D1
350
5B
  3
D2
350
5C
  0
DICTIONARY
  5
91
102
{ACAD_REACTORS
330
C
102
}
330
C
100
AcDbDictionary
281
     1
  3
Standard
350
B8
  0
DICTIONARY
  5
2A
102
{ACAD_REACTORS
330
C
102
}
330
C
100
AcDbDictionary
281
     1
  3
2dWireframe
350
2F
  3
3D Hidden
350
31
  3
3dWireframe
350
30
  3
Basic
350
32
  3
Brighten
350
36
  3
ColorChange
350
3A
  3
Conceptual
350
34
  3
Dim
350
35
  3
EdgeColorOff
350
B6
  3
Facepattern
350
39
  3
Flat
350
2B
  3
FlatWithEdges
350
2C
  3
Gouraud
350
2D
  3
GouraudWithEdges
350
2E
  3
Hidden
350
AE
  3
JitterOff
350
B4
  3
Linepattern
350
38
  3
OverhangOff
350
B5
  3
Realistic
350
33
  3
Shaded
350
B3
  3
Shaded with edges
350
B2
  3
Shades of Gray
350
AF
  3
Sketchy
350
B0
  3
Thicken
350
37
  3
Wireframe
350
AD
  3
X-Ray
350
B1
  0
XRECORD
  5
15A
102
{ACAD_REACTORS
330
C
102
}
330
C
100
AcDbXrecord
280
     1
 90
        1
330
B8
330
CC
  0
DICTIONARY
  5
D2
102
{ACAD_REACTORS
330
C
102
}
330
C
100
AcDbDictionary
281
     1
  3
CANNOSCALE
350
D5
  3
CMLEADERSTYLE
350
D4
  3
CTABLESTYLE
350
D3
  3
LAYEREVAL
350
D6
  3
LAYERNOTIFY
350
D7
  0
DICTIONARY
  5
C3
102
{ACAD_REACTORS
330
C2
102
}
330
C2
100
AcDbDictionary
281
     1
  0
XRECORD
  5
CE
102
{ACAD_REACTORS
330
CD
102
}
330
CD
100
AcDbXrecord
280
     1
290
     1
  0
XRECORD
  5
D0
102
{ACAD_REACTORS
330
CF
102
}
330
CF
100
AcDbXrecord
280
     1
290
     1
  0
XRECORD
  5
D1
102
{ACAD_REACTORS
330
BF
102
}
330
BF
100
AcDbXrecord
280
     1
290
     1
  0
LAYOUT
  5
1E
102
{ACAD_REACTORS
330
1A
102
}
330
1A
100
AcDbPlotSettings
  1

  2
none_device
  4

  6

 40
0.0
 41
0.0
 42
0.0
 43
0.0
 44
0.0
 45
0.0
 46
0.0
 47
0.0
 48
0.0
 49
0.0
140
0.0
141
0.0
142
1.0
143
1.0
 70
   688
 72
     0
 73
     0
 74
     5
  7

 75
    16
147
1.0
 76
     0
 77
     2
 78
   300
148
0.0
149
0.0
100
AcDbLayout
  1
Layout1
 70
     1
 71
     1
 10
0.0
 20
0.0
 11
12.0
 21
9.0
 12
0.0
 22
0.0
 32
0.0
 14
1.000000000000000E+20
 24
1.000000000000000E+20
 34
1.000000000000000E+20
 15
-1.000000000000000E+20
 25
-1.000000000000000E+20
 35
-1.000000000000000E+20
146
0.0
 13
0.0
 23
0.0
 33
0.0
 16
1.0
 26
0.0
 36
0.0
 17
0.0
 27
1.0
 37
0.0
 76
     0
330
1B
  0
LAYOUT
  5
26
102
{ACAD_REACTORS
330
1A
102
}
330
1A
100
AcDbPlotSettings
  1

  2
none_device
  4

  6

 40
0.0
 41
0.0
 42
0.0
 43
0.0
 44
0.0
 45
0.0
 46
0.0
 47
0.0
 48
0.0
 49
0.0
140
0.0
141
0.0
142
1.0
143
1.0
 70
   688
 72
     0
 73
     0
 74
     5
  7

 75
    16
147
1.0
 76
     0
 77
     2
 78
   300
148
0.0
149
0.0
100
AcDbLayout
  1
Layout2
 70
     1
 71
     2
 10
0.0
 20
0.0
 11
0.0
 21
0.0
 12
0.0
 22
0.0
 32
0.0
 14
0.0
 24
0.0
 34
0.0
 15
0.0
 25
0.0
 35
0.0
146
0.0
 13
0.0
 23
0.0
 33
0.0
 16
1.0
 26
0.0
 36
0.0
 17
0.0
 27
1.0
 37
0.0
 76
     0
330
23
  0
LAYOUT
  5
22
102
{ACAD_REACTORS
330
1A
102
}
330
1A
100
AcDbPlotSettings
  1

  2
none_device
  4
Letter_(8.50_x_11.00_Inches)
  6

 40
6.349999904632568
 41
6.349999904632568
 42
6.350006103515625
 43
6.350006103515625
 44
215.8999938964844
 45
279.3999938964844
 46
0.0
 47
0.0
 48
0.0
 49
0.0
140
0.0
141
0.0
142
1.0
143
33.58820240194357
 70
 11952
 72
     0
 73
     1
 74
     0
  7

 75
     0
147
0.0297723584023102
 76
     0
 77
     2
 78
   300
148
-16349.63068937955
149
4410.074901091428
100
AcDbLayout
  1
Model
 70
     1
 71
     0
 10
0.0
 20
0.0
 11
12.0
 21
9.0
 12
0.0
 22
0.0
 32
0.0
 14
783.3749
 24
-120.00163
 34
0.0
 15
828.8825199999999
 25
-77.88551
 35
0.0
146
0.0
 13
0.0
 23
0.0
 33
0.0
 16
1.0
 26
0.0
 36
0.0
 17
0.0
 27
1.0
 37
0.0
 76
     0
330
1F
331
29
1001
ACAD_PSEXT
1000
无
1000
无
1000
不可用
1000
在选择新的绘图仪配置名称之前，不能打印该布局。
1070
     0
  0
MATERIAL
  5
9D
102
{ACAD_XDICTIONARY
360
9E
102
}
102
{ACAD_REACTORS
330
94
102
}
330
94
100
AcDbMaterial
  1
ByBlock
 72
     0
 43
0.0082020997375328
 43
0.0
 43
0.0
 43
0.0
 43
0.0
 43
0.0082020997375328
 43
0.0
 43
0.0
 43
0.0
 43
0.0
 43
1.0
 43
0.0
 43
0.0
 43
0.0
 43
0.0
 43
1.0
 77
     0
 47
0.0082020997375328
 47
0.0
 47
0.0
 47
0.0
 47
0.0
 47
0.0082020997375328
 47
0.0
 47
0.0
 47
0.0
 47
0.0
 47
1.0
 47
0.0
 47
0.0
 47
0.0
 47
0.0
 47
1.0
171
     0
 49
0.0082020997375328
 49
0.0
 49
0.0
 49
0.0
 49
0.0
 49
0.0082020997375328
 49
0.0
 49
0.0
 49
0.0
 49
0.0
 49
1.0
 49
0.0
 49
0.0
 49
0.0
 49
0.0
 49
1.0
175
     0
142
0.0082020997375328
142
0.0
142
0.0
142
0.0
142
0.0
142
0.0082020997375328
142
0.0
142
0.0
142
0.0
142
0.0
142
1.0
142
0.0
142
0.0
142
0.0
142
0.0
142
1.0
179
     0
144
0.0082020997375328
144
0.0
144
0.0
144
0.0
144
0.0
144
0.0082020997375328
144
0.0
144
0.0
144
0.0
144
0.0
144
1.0
144
0.0
144
0.0
144
0.0
144
0.0
144
1.0
147
0.0082020997375328
147
0.0
147
0.0
147
0.0
147
0.0
147
0.0082020997375328
147
0.0
147
0.0
147
0.0
147
0.0
147
1.0
147
0.0
147
0.0
147
0.0
147
0.0
147
1.0
  0
MATERIAL
  5
95
102
{ACAD_XDICTIONARY
360
96
102
}
102
{ACAD_REACTORS
330
94
102
}
330
94
100
AcDbMaterial
  1
ByLayer
 72
     0
 43
0.0082020997375328
 43
0.0
 43
0.0
 43
0.0
 43
0.0
 43
0.0082020997375328
 43
0.0
 43
0.0
 43
0.0
 43
0.0
 43
1.0
 43
0.0
 43
0.0
 43
0.0
 43
0.0
 43
1.0
 77
     0
 47
0.0082020997375328
 47
0.0
 47
0.0
 47
0.0
 47
0.0
 47
0.0082020997375328
 47
0.0
 47
0.0
 47
0.0
 47
0.0
 47
1.0
 47
0.0
 47
0.0
 47
0.0
 47
0.0
 47
1.0
171
     0
 49
0.0082020997375328
 49
0.0
 49
0.0
 49
0.0
 49
0.0
 49
0.0082020997375328
 49
0.0
 49
0.0
 49
0.0
 49
0.0
 49
1.0
 49
0.0
 49
0.0
 49
0.0
 49
0.0
 49
1.0
175
     0
142
0.0082020997375328
142
0.0
142
0.0
142
0.0
142
0.0
142
0.0082020997375328
142
0.0
142
0.0
142
0.0
142
0.0
142
1.0
142
0.0
142
0.0
142
0.0
142
0.0
142
1.0
179
     0
144
0.0082020997375328
144
0.0
144
0.0
144
0.0
144
0.0
144
0.0082020997375328
144
0.0
144
0.0
144
0.0
144
0.0
144
1.0
144
0.0
144
0.0
144
0.0
144
0.0
144
1.0
147
0.0082020997375328
147
0.0
147
0.0
147
0.0
147
0.0
147
0.0082020997375328
147
0.0
147
0.0
147
0.0
147
0.0
147
1.0
147
0.0
147
0.0
147
0.0
147
0.0
147
1.0
  0
MATERIAL
  5
A5
102
{ACAD_XDICTIONARY
360
A6
102
}
102
{ACAD_REACTORS
330
94
102
}
330
94
100
AcDbMaterial
  1
Global
 72
     0
 43
0.0082020997375328
 43
0.0
 43
0.0
 43
0.0
 43
0.0
 43
0.0082020997375328
 43
0.0
 43
0.0
 43
0.0
 43
0.0
 43
1.0
 43
0.0
 43
0.0
 43
0.0
 43
0.0
 43
1.0
 77
     0
 47
0.0082020997375328
 47
0.0
 47
0.0
 47
0.0
 47
0.0
 47
0.0082020997375328
 47
0.0
 47
0.0
 47
0.0
 47
0.0
 47
1.0
 47
0.0
 47
0.0
 47
0.0
 47
0.0
 47
1.0
171
     0
 49
0.0082020997375328
 49
0.0
 49
0.0
 49
0.0
 49
0.0
 49
0.0082020997375328
 49
0.0
 49
0.0
 49
0.0
 49
0.0
 49
1.0
 49
0.0
 49
0.0
 49
0.0
 49
0.0
 49
1.0
175
     0
142
0.0082020997375328
142
0.0
142
0.0
142
0.0
142
0.0
142
0.0082020997375328
142
0.0
142
0.0
142
0.0
142
0.0
142
1.0
142
0.0
142
0.0
142
0.0
142
0.0
142
1.0
179
     0
144
0.0082020997375328
144
0.0
144
0.0
144
0.0
144
0.0
144
0.0082020997375328
144
0.0
144
0.0
144
0.0
144
0.0
144
1.0
144
0.0
144
0.0
144
0.0
144
0.0
144
1.0
147
0.0082020997375328
147
0.0
147
0.0
147
0.0
147
0.0
147
0.0082020997375328
147
0.0
147
0.0
147
0.0
147
0.0
147
1.0
147
0.0
147
0.0
147
0.0
147
0.0
147
1.0
  0
MLEADERSTYLE
  5
B9
102
{ACAD_XDICTIONARY
360
158
102
}
102
{ACAD_REACTORS
330
92
102
}
330
92
100
AcDbMLeaderStyle
170
     2
171
     1
172
     0
 90
        2
 40
0.0
 41
0.0
173
     1
 91
-1056964608
340
14
 92
       -2
290
     1
 42
0.09
291
     1
 43
0.36
  3
Standard
 44
0.18
300

342
11
174
     1
178
     6
175
     1
176
     0
 93
-1056964608
 45
0.18
292
     0
297
     0
 46
0.18
 94
-1056964608
 47
1.0
 49
1.0
140
1.0
293
     1
141
0.0
294
     1
177
     0
142
1.0
295
     0
296
     0
143
0.125
1001
ACAD_MLEADERVER
1070
     2
  0
MLINESTYLE
  5
18
102
{ACAD_REACTORS
330
17
102
}
330
17
100
AcDbMlineStyle
  2
STANDARD
 70
     0
  3

 62
   256
 51
90.0
 52
90.0
 71
     2
 49
0.5
 62
   256
  6
BYLAYER
 49
-0.5
 62
   256
  6
BYLAYER
  0
ACDBPLACEHOLDER
  5
F
102
{ACAD_REACTORS
330
E
102
}
330
E
  0
SCALE
  5
3C
102
{ACAD_REACTORS
330
3B
102
}
330
3B
100
AcDbScale
 70
     0
300
1:1
140
1.0
141
1.0
290
     1
  0
SCALE
  5
3D
102
{ACAD_REACTORS
330
3B
102
}
330
3B
100
AcDbScale
 70
     0
300
1:2
140
1.0
141
2.0
290
     0
  0
SCALE
  5
3E
102
{ACAD_REACTORS
330
3B
102
}
330
3B
100
AcDbScale
 70
     0
300
1:4
140
1.0
141
4.0
290
     0
  0
SCALE
  5
3F
102
{ACAD_REACTORS
330
3B
102
}
330
3B
100
AcDbScale
 70
     0
300
1:5
140
1.0
141
5.0
290
     0
  0
SCALE
  5
40
102
{ACAD_REACTORS
330
3B
102
}
330
3B
100
AcDbScale
 70
     0
300
1:8
140
1.0
141
8.0
290
     0
  0
SCALE
  5
41
102
{ACAD_REACTORS
330
3B
102
}
330
3B
100
AcDbScale
 70
     0
300
1:10
140
1.0
141
10.0
290
     0
  0
SCALE
  5
42
102
{ACAD_REACTORS
330
3B
102
}
330
3B
100
AcDbScale
 70
     0
300
1:16
140
1.0
141
16.0
290
     0
  0
SCALE
  5
43
102
{ACAD_REACTORS
330
3B
102
}
330
3B
100
AcDbScale
 70
     0
300
1:20
140
1.0
141
20.0
290
     0
  0
SCALE
  5
44
102
{ACAD_REACTORS
330
3B
102
}
330
3B
100
AcDbScale
 70
     0
300
1:30
140
1.0
141
30.0
290
     0
  0
SCALE
  5
45
102
{ACAD_REACTORS
330
3B
102
}
330
3B
100
AcDbScale
 70
     0
300
1:40
140
1.0
141
40.0
290
     0
  0
SCALE
  5
46
102
{ACAD_REACTORS
330
3B
102
}
330
3B
100
AcDbScale
 70
     0
300
1:50
140
1.0
141
50.0
290
     0
  0
SCALE
  5
47
102
{ACAD_REACTORS
330
3B
102
}
330
3B
100
AcDbScale
 70
     0
300
1:100
140
1.0
141
100.0
290
     0
  0
SCALE
  5
48
102
{ACAD_REACTORS
330
3B
102
}
330
3B
100
AcDbScale
 70
     0
300
2:1
140
2.0
141
1.0
290
     0
  0
SCALE
  5
49
102
{ACAD_REACTORS
330
3B
102
}
330
3B
100
AcDbScale
 70
     0
300
4:1
140
4.0
141
1.0
290
     0
  0
SCALE
  5
4A
102
{ACAD_REACTORS
330
3B
102
}
330
3B
100
AcDbScale
 70
     0
300
8:1
140
8.0
141
1.0
290
     0
  0
SCALE
  5
4B
102
{ACAD_REACTORS
330
3B
102
}
330
3B
100
AcDbScale
 70
     0
300
10:1
140
10.0
141
1.0
290
     0
  0
SCALE
  5
4C
102
{ACAD_REACTORS
330
3B
102
}
330
3B
100
AcDbScale
 70
     0
300
100:1
140
100.0
141
1.0
290
     0
  0
SCALE
  5
4D
102
{ACAD_REACTORS
330
3B
102
}
330
3B
100
AcDbScale
 70
     0
300
1/128" = 1'-0"
140
0.0078125
141
12.0
290
     0
  0
SCALE
  5
4E
102
{ACAD_REACTORS
330
3B
102
}
330
3B
100
AcDbScale
 70
     0
300
1/64" = 1'-0"
140
0.015625
141
12.0
290
     0
  0
SCALE
  5
4F
102
{ACAD_REACTORS
330
3B
102
}
330
3B
100
AcDbScale
 70
     0
300
1/32" = 1'-0"
140
0.03125
141
12.0
290
     0
  0
SCALE
  5
50
102
{ACAD_REACTORS
330
3B
102
}
330
3B
100
AcDbScale
 70
     0
300
1/16" = 1'-0"
140
0.0625
141
12.0
290
     0
  0
SCALE
  5
51
102
{ACAD_REACTORS
330
3B
102
}
330
3B
100
AcDbScale
 70
     0
300
3/32" = 1'-0"
140
0.09375
141
12.0
290
     0
  0
SCALE
  5
52
102
{ACAD_REACTORS
330
3B
102
}
330
3B
100
AcDbScale
 70
     0
300
1/8" = 1'-0"
140
0.125
141
12.0
290
     0
  0
SCALE
  5
53
102
{ACAD_REACTORS
330
3B
102
}
330
3B
100
AcDbScale
 70
     0
300
3/16" = 1'-0"
140
0.1875
141
12.0
290
     0
  0
SCALE
  5
54
102
{ACAD_REACTORS
330
3B
102
}
330
3B
100
AcDbScale
 70
     0
300
1/4" = 1'-0"
140
0.25
141
12.0
290
     0
  0
SCALE
  5
55
102
{ACAD_REACTORS
330
3B
102
}
330
3B
100
AcDbScale
 70
     0
300
3/8" = 1'-0"
140
0.375
141
12.0
290
     0
  0
SCALE
  5
56
102
{ACAD_REACTORS
330
3B
102
}
330
3B
100
AcDbScale
 70
     0
300
1/2" = 1'-0"
140
0.5
141
12.0
290
     0
  0
SCALE
  5
57
102
{ACAD_REACTORS
330
3B
102
}
330
3B
100
AcDbScale
 70
     0
300
3/4" = 1'-0"
140
0.75
141
12.0
290
     0
  0
SCALE
  5
58
102
{ACAD_REACTORS
330
3B
102
}
330
3B
100
AcDbScale
 70
     0
300
1" = 1'-0"
140
1.0
141
12.0
290
     0
  0
SCALE
  5
59
102
{ACAD_REACTORS
330
3B
102
}
330
3B
100
AcDbScale
 70
     0
300
1-1/2" = 1'-0"
140
1.5
141
12.0
290
     0
  0
SCALE
  5
5A
102
{ACAD_REACTORS
330
3B
102
}
330
3B
100
AcDbScale
 70
     0
300
3" = 1'-0"
140
3.0
141
12.0
290
     0
  0
SCALE
  5
5B
102
{ACAD_REACTORS
330
3B
102
}
330
3B
100
AcDbScale
 70
     0
300
6" = 1'-0"
140
6.0
141
12.0
290
     0
  0
SCALE
  5
5C
102
{ACAD_REACTORS
330
3B
102
}
330
3B
100
AcDbScale
 70
     0
300
1'-0" = 1'-0"
140
12.0
141
12.0
290
     0
  0
TABLESTYLE
  5
B8
102
{ACAD_XDICTIONARY
360
D8
102
}
102
{ACAD_REACTORS
330
91
102
}
330
91
100
AcDbTableStyle
  3
Standard
 70
     0
 71
     0
 40
0.06
 41
0.06
280
     0
281
     0
  7
Standard
140
0.18
170
     2
 62
     0
 63
     7
283
     0
 90
      512
 91
        0
  1

274
    -2
284
     1
 64
     0
275
    -2
285
     1
 65
     0
276
    -2
286
     1
 66
     0
277
    -2
287
     1
 67
     0
278
    -2
288
     1
 68
     0
279
    -2
289
     1
 69
     0
  7
Standard
140
0.25
170
     5
 62
     0
 63
     7
283
     0
 90
      512
 91
        0
  1

274
    -2
284
     1
 64
     0
275
    -2
285
     1
 65
     0
276
    -2
286
     1
 66
     0
277
    -2
287
     1
 67
     0
278
    -2
288
     1
 68
     0
279
    -2
289
     1
 69
     0
  7
Standard
140
0.18
170
     5
 62
     0
 63
     7
283
     0
 90
      512
 91
        0
  1

274
    -2
284
     1
 64
     0
275
    -2
285
     1
 65
     0
276
    -2
286
     1
 66
     0
277
    -2
287
     1
 67
     0
278
    -2
288
     1
 68
     0
279
    -2
289
     1
 69
     0
  0
VISUALSTYLE
  5
2F
102
{ACAD_XDICTIONARY
360
163
102
}
102
{ACAD_REACTORS
330
2A
102
}
330
2A
100
AcDbVisualStyle
  2

 70
     4
 71
     0
 72
     2
 73
     0
 90
        0
 40
-0.6
 41
-30.0
 62
     5
 63
     7
421
 16777215
 74
     1
 91
        4
 64
     7
 65
   257
 75
     1
175
     1
 42
1.0
 92
        0
 66
   257
 43
1.0
 76
     1
 77
     6
 78
     2
 67
     7
 79
     5
170
     0
171
     0
290
     0
174
     0
 93
        1
 44
0.0
173
     0
291
     0
 45
0.0
1001
ACAD
1000
AcDbSavedByObjectVersion
1070
     0
  0
VISUALSTYLE
  5
31
102
{ACAD_XDICTIONARY
360
167
102
}
102
{ACAD_REACTORS
330
2A
102
}
330
2A
100
AcDbVisualStyle
  2

 70
     6
 71
     1
 72
     2
 73
     2
 90
        0
 40
-0.6
 41
-30.0
 62
     5
 63
     7
421
 16777215
 74
     2
 91
        2
 64
     7
 65
   257
 75
     2
175
     1
 42
40.0
 92
        0
 66
   257
 43
1.0
 76
     1
 77
     6
 78
     2
 67
     7
 79
     3
170
     0
171
     0
290
     0
174
     0
 93
        1
 44
0.0
173
     0
291
     0
 45
0.0
1001
ACAD
1000
AcDbSavedByObjectVersion
1070
     0
  0
VISUALSTYLE
  5
30
102
{ACAD_XDICTIONARY
360
165
102
}
102
{ACAD_REACTORS
330
2A
102
}
330
2A
100
AcDbVisualStyle
  2

 70
     5
 71
     0
 72
     2
 73
     0
 90
        0
 40
-0.6
 41
-30.0
 62
     5
 63
     7
421
 16777215
 74
     1
 91
        4
 64
     7
 65
   257
 75
     1
175
     1
 42
1.0
 92
        0
 66
   257
 43
1.0
 76
     1
 77
     6
 78
     2
 67
     7
 79
     5
170
     0
171
     0
290
     0
174
     0
 93
        1
 44
0.0
173
     0
291
     0
 45
0.0
1001
ACAD
1000
AcDbSavedByObjectVersion
1070
     0
  0
VISUALSTYLE
  5
32
102
{ACAD_XDICTIONARY
360
169
102
}
102
{ACAD_REACTORS
330
2A
102
}
330
2A
100
AcDbVisualStyle
  2

 70
     7
 71
     1
 72
     0
 73
     1
 90
        0
 40
-0.6
 41
-30.0
 62
     5
 63
     7
421
 16777215
 74
     0
 91
        4
 64
     7
 65
   257
 75
     1
175
     1
 42
1.0
 92
        8
 66
     7
 43
1.0
 76
     1
 77
     6
 78
     2
 67
     7
 79
     5
170
     0
171
     0
290
     0
174
     0
 93
        1
 44
0.0
173
     0
291
     1
 45
0.0
1001
ACAD
1000
AcDbSavedByObjectVersion
1070
     0
  0
VISUALSTYLE
  5
36
102
{ACAD_XDICTIONARY
360
171
102
}
102
{ACAD_REACTORS
330
2A
102
}
330
2A
100
AcDbVisualStyle
  2

 70
    12
 71
     2
 72
     2
 73
     0
 90
        0
 40
-0.6
 41
-30.0
 62
     5
 63
     7
421
 16777215
 74
     1
 91
        4
 64
     7
 65
   257
 75
     1
175
     1
 42
1.0
 92
        8
 66
     7
 43
1.0
 76
     1
 77
     6
 78
     2
 67
     7
 79
     5
170
     0
171
     0
290
     0
174
     0
 93
        1
 44
50.0
173
     0
291
     1
 45
0.0
1001
ACAD
1000
AcDbSavedByObjectVersion
1070
     0
  0
VISUALSTYLE
  5
3A
102
{ACAD_XDICTIONARY
360
179
102
}
102
{ACAD_REACTORS
330
2A
102
}
330
2A
100
AcDbVisualStyle
  2

 70
    16
 71
     2
 72
     2
 73
     3
 90
        0
 40
-0.6
 41
-30.0
 62
     5
 63
     8
421
  8421504
 74
     1
 91
        4
 64
     7
 65
   257
 75
     1
175
     1
 42
1.0
 92
        8
 66
     8
424
  8421504
 43
1.0
 76
     1
 77
     6
 78
     2
 67
     7
 79
     5
170
     0
171
     0
290
     0
174
     0
 93
        1
 44
0.0
173
     0
291
     1
 45
0.0
1001
ACAD
1000
AcDbSavedByObjectVersion
1070
     0
  0
VISUALSTYLE
  5
34
102
{ACAD_XDICTIONARY
360
16D
102
}
102
{ACAD_REACTORS
330
2A
102
}
330
2A
100
AcDbVisualStyle
  2

 70
     9
 71
     3
 72
     2
 73
     0
 90
        0
 40
-0.6
 41
-30.0
 62
     5
 63
     7
421
 16777215
 74
     2
 91
        2
 64
     7
 65
   257
 75
     1
175
     1
 42
40.0
 92
        8
 66
     7
 43
1.0
 76
     1
 77
     6
 78
     2
 67
     7
 79
     3
170
     0
171
     0
290
     0
174
     0
 93
        1
 44
0.0
173
     0
291
     0
 45
0.0
1001
ACAD
1000
AcDbSavedByObjectVersion
1070
     0
  0
VISUALSTYLE
  5
35
102
{ACAD_XDICTIONARY
360
16F
102
}
102
{ACAD_REACTORS
330
2A
102
}
330
2A
100
AcDbVisualStyle
  2

 70
    11
 71
     2
 72
     2
 73
     0
 90
        0
 40
-0.6
 41
-30.0
 62
     5
 63
     7
421
 16777215
 74
     1
 91
        4
 64
     7
 65
   257
 75
     1
175
     1
 42
1.0
 92
        8
 66
     7
 43
1.0
 76
     1
 77
     6
 78
     2
 67
     7
 79
     5
170
     0
171
     0
290
     0
174
     0
 93
        1
 44
-50.0
173
     0
291
     1
 45
0.0
1001
ACAD
1000
AcDbSavedByObjectVersion
1070
     0
  0
VISUALSTYLE
  5
B6
102
{ACAD_XDICTIONARY
360
18D
102
}
102
{ACAD_REACTORS
330
2A
102
}
330
2A
100
AcDbVisualStyle
  2

 70
    22
 71
     2
 72
     2
 73
     0
 90
        0
 40
-0.6
 41
-30.0
 62
     5
 63
     7
421
 16777215
 74
     1
 91
        4
 64
     7
 65
   257
 75
     1
175
     1
 42
1.0
 92
        8
 66
     7
 43
1.0
 76
     1
 77
     6
 78
     2
 67
     7
 79
     5
170
     0
171
     0
290
     0
174
     0
 93
        1
 44
0.0
173
     0
291
     1
 45
0.0
1001
ACAD
1000
AcDbSavedByObjectVersion
1070
     0
  0
VISUALSTYLE
  5
39
102
{ACAD_XDICTIONARY
360
177
102
}
102
{ACAD_REACTORS
330
2A
102
}
330
2A
100
AcDbVisualStyle
  2

 70
    15
 71
     2
 72
     2
 73
     0
 90
        0
 40
-0.6
 41
-30.0
 62
     5
 63
     7
421
 16777215
 74
     1
 91
        4
 64
     7
 65
   257
 75
     1
175
     1
 42
1.0
 92
        8
 66
     7
 43
1.0
 76
     1
 77
     6
 78
     2
 67
     7
 79
     5
170
     0
171
     0
290
     0
174
     0
 93
        1
 44
0.0
173
     0
291
     1
 45
0.0
1001
ACAD
1000
AcDbSavedByObjectVersion
1070
     0
  0
VISUALSTYLE
  5
2B
102
{ACAD_XDICTIONARY
360
15B
102
}
102
{ACAD_REACTORS
330
2A
102
}
330
2A
100
AcDbVisualStyle
  2

 70
     0
 71
     2
 72
     1
 73
     1
 90
        2
 40
-0.6
 41
30.0
 62
     5
 63
     7
421
 16777215
 74
     0
 91
        4
 64
     7
 65
   257
 75
     1
175
     1
 42
1.0
 92
        8
 66
     7
 43
1.0
 76
     1
 77
     6
 78
     2
 67
     7
 79
     5
170
     0
171
     0
290
     0
174
     0
 93
       13
 44
0.0
173
     0
291
     1
 45
0.0
1001
ACAD
1000
AcDbSavedByObjectVersion
1070
     0
  0
VISUALSTYLE
  5
2C
102
{ACAD_XDICTIONARY
360
15D
102
}
102
{ACAD_REACTORS
330
2A
102
}
330
2A
100
AcDbVisualStyle
  2

 70
     1
 71
     2
 72
     1
 73
     1
 90
        2
 40
-0.6
 41
30.0
 62
     5
 63
     7
421
 16777215
 74
     1
 91
        4
 64
     7
 65
   257
 75
     1
175
     1
 42
1.0
 92
        0
 66
   257
 43
1.0
 76
     1
 77
     6
 78
     2
 67
     7
 79
     5
170
     0
171
     0
290
     0
174
     0
 93
       13
 44
0.0
173
     0
291
     1
 45
0.0
1001
ACAD
1000
AcDbSavedByObjectVersion
1070
     0
  0
VISUALSTYLE
  5
2D
102
{ACAD_XDICTIONARY
360
15F
102
}
102
{ACAD_REACTORS
330
2A
102
}
330
2A
100
AcDbVisualStyle
  2

 70
     2
 71
     2
 72
     2
 73
     1
 90
        2
 40
-0.6
 41
30.0
 62
     5
 63
     7
421
 16777215
 74
     0
 91
        4
 64
     7
 65
   257
 75
     1
175
     1
 42
1.0
 92
        0
 66
     7
 43
1.0
 76
     1
 77
     6
 78
     2
 67
     7
 79
     5
170
     0
171
     0
290
     0
174
     0
 93
       13
 44
0.0
173
     0
291
     1
 45
0.0
1001
ACAD
1000
AcDbSavedByObjectVersion
1070
     0
  0
VISUALSTYLE
  5
2E
102
{ACAD_XDICTIONARY
360
161
102
}
102
{ACAD_REACTORS
330
2A
102
}
330
2A
100
AcDbVisualStyle
  2

 70
     3
 71
     2
 72
     2
 73
     1
 90
        2
 40
-0.6
 41
30.0
 62
     5
 63
     7
421
 16777215
 74
     1
 91
        4
 64
     7
 65
   257
 75
     1
175
     1
 42
1.0
 92
        0
 66
   257
 43
1.0
 76
     1
 77
     6
 78
     2
 67
     7
 79
     5
170
     0
171
     0
290
     0
174
     0
 93
       13
 44
0.0
173
     0
291
     1
 45
0.0
1001
ACAD
1000
AcDbSavedByObjectVersion
1070
     0
  0
VISUALSTYLE
  5
AE
102
{ACAD_XDICTIONARY
360
17D
102
}
102
{ACAD_REACTORS
330
2A
102
}
330
2A
100
AcDbVisualStyle
  2

 70
     6
 71
     1
 72
     2
 73
     2
 90
        0
 40
-0.6
 41
-30.0
 62
     5
 63
     7
421
 16777215
 74
     2
 91
        2
 64
     7
 65
   257
 75
     2
175
     1
 42
40.0
 92
        0
 66
   257
 43
1.0
 76
     1
 77
     6
 78
     2
 67
     7
 79
     3
170
     0
171
     0
290
     0
174
     0
 93
        1
 44
0.0
173
     0
291
     0
 45
0.0
1001
ACAD
1000
AcDbSavedByObjectVersion
1070
     0
  0
VISUALSTYLE
  5
B4
102
{ACAD_XDICTIONARY
360
189
102
}
102
{ACAD_REACTORS
330
2A
102
}
330
2A
100
AcDbVisualStyle
  2

 70
    20
 71
     2
 72
     2
 73
     0
 90
        0
 40
-0.6
 41
-30.0
 62
     5
 63
     7
421
 16777215
 74
     1
 91
        4
 64
     7
 65
   257
 75
     1
175
     1
 42
1.0
 92
       10
 66
     7
 43
1.0
 76
     1
 77
     6
 78
     2
 67
     7
 79
     5
170
     0
171
     0
290
     0
174
     0
 93
        1
 44
0.0
173
     0
291
     1
 45
0.0
1001
ACAD
1000
AcDbSavedByObjectVersion
1070
     0
  0
VISUALSTYLE
  5
38
102
{ACAD_XDICTIONARY
360
175
102
}
102
{ACAD_REACTORS
330
2A
102
}
330
2A
100
AcDbVisualStyle
  2

 70
    14
 71
     2
 72
     2
 73
     0
 90
        0
 40
-0.6
 41
-30.0
 62
     5
 63
     7
421
 16777215
 74
     1
 91
        4
 64
     7
 65
   257
 75
     7
175
     7
 42
1.0
 92
        8
 66
     7
 43
1.0
 76
     1
 77
     6
 78
     2
 67
     7
 79
     5
170
     0
171
     0
290
     0
174
     0
 93
        1
 44
0.0
173
     0
291
     1
 45
0.0
1001
ACAD
1000
AcDbSavedByObjectVersion
1070
     0
  0
VISUALSTYLE
  5
B5
102
{ACAD_XDICTIONARY
360
18B
102
}
102
{ACAD_REACTORS
330
2A
102
}
330
2A
100
AcDbVisualStyle
  2

 70
    21
 71
     2
 72
     2
 73
     0
 90
        0
 40
-0.6
 41
-30.0
 62
     5
 63
     7
421
 16777215
 74
     1
 91
        4
 64
     7
 65
   257
 75
     1
175
     1
 42
1.0
 92
        9
 66
     7
 43
1.0
 76
     1
 77
     6
 78
     2
 67
     7
 79
     5
170
     0
171
     0
290
     0
174
     0
 93
        1
 44
0.0
173
     0
291
     1
 45
0.0
1001
ACAD
1000
AcDbSavedByObjectVersion
1070
     0
  0
VISUALSTYLE
  5
33
102
{ACAD_XDICTIONARY
360
16B
102
}
102
{ACAD_REACTORS
330
2A
102
}
330
2A
100
AcDbVisualStyle
  2

 70
     8
 71
     2
 72
     2
 73
     0
 90
        0
 40
-0.6
 41
-30.0
 62
     5
 63
     7
421
 16777215
 74
     1
 91
        0
 64
     7
 65
   257
 75
     1
175
     1
 42
1.0
 92
        8
 66
     8
424
  7895160
 43
1.0
 76
     1
 77
     6
 78
     2
 67
     7
 79
     5
170
     0
171
     0
290
     0
174
     0
 93
       13
 44
0.0
173
     0
291
     0
 45
0.0
1001
ACAD
1000
AcDbSavedByObjectVersion
1070
     0
  0
VISUALSTYLE
  5
B3
102
{ACAD_XDICTIONARY
360
187
102
}
102
{ACAD_REACTORS
330
2A
102
}
330
2A
100
AcDbVisualStyle
  2

 70
    27
 71
     2
 72
     2
 73
     1
 90
        2
 40
-0.6
 41
30.0
 62
     5
 63
     7
421
 16777215
 74
     0
 91
        4
 64
     7
 65
   257
 75
     1
175
     1
 42
1.0
 92
        8
 66
   257
 43
1.0
 76
     1
 77
     6
 78
     2
 67
     8
425
  7895160
 79
     3
170
     0
171
     0
290
     0
174
     0
 93
        5
 44
0.0
173
     0
291
     0
 45
0.0
1001
ACAD
1000
AcDbSavedByObjectVersion
1070
     0
  0
VISUALSTYLE
  5
B2
102
{ACAD_XDICTIONARY
360
185
102
}
102
{ACAD_REACTORS
330
2A
102
}
330
2A
100
AcDbVisualStyle
  2

 70
    26
 71
     2
 72
     2
 73
     1
 90
        2
 40
-0.6
 41
30.0
 62
     5
 63
     7
421
 16777215
 74
     1
 91
       10
 64
     7
 65
   257
 75
     2
175
     1
 42
1.0
 92
        8
 66
   257
 43
1.0
 76
     1
 77
     6
 78
     2
 67
     7
 79
     3
170
     0
171
     0
290
     0
174
     0
 93
        5
 44
0.0
173
     0
291
     0
 45
0.0
1001
ACAD
1000
AcDbSavedByObjectVersion
1070
     0
  0
VISUALSTYLE
  5
AF
102
{ACAD_XDICTIONARY
360
17F
102
}
102
{ACAD_REACTORS
330
2A
102
}
330
2A
100
AcDbVisualStyle
  2

 70
    23
 71
     2
 72
     2
 73
     3
 90
        0
 40
-0.6
 41
-30.0
 62
     5
 63
     7
421
 16777215
 74
     2
 91
        2
 64
     7
 65
     7
 75
     1
175
     1
 42
40.0
 92
        8
 66
     7
 43
1.0
 76
     1
 77
     6
 78
     2
 67
     7
 79
     3
170
     0
171
     0
290
     0
174
     0
 93
        1
 44
0.0
173
     0
291
     0
 45
0.0
1001
ACAD
1000
AcDbSavedByObjectVersion
1070
     0
  0
VISUALSTYLE
  5
B0
102
{ACAD_XDICTIONARY
360
181
102
}
102
{ACAD_REACTORS
330
2A
102
}
330
2A
100
AcDbVisualStyle
  2

 70
    24
 71
     1
 72
     2
 73
     2
 90
        0
 40
-0.6
 41
-30.0
 62
     5
 63
     7
421
 16777215
 74
     2
 91
        2
 64
     7
 65
     7
 75
     1
175
     1
 42
40.0
 92
       11
 66
     7
 43
1.0
 76
     1
 77
     6
 78
     2
 67
     7
 79
     6
170
     0
171
     0
290
     0
174
     0
 93
        1
 44
0.0
173
     0
291
     0
 45
0.0
1001
ACAD
1000
AcDbSavedByObjectVersion
1070
     0
  0
VISUALSTYLE
  5
37
102
{ACAD_XDICTIONARY
360
173
102
}
102
{ACAD_REACTORS
330
2A
102
}
330
2A
100
AcDbVisualStyle
  2

 70
    13
 71
     2
 72
     2
 73
     0
 90
        0
 40
-0.6
 41
-30.0
 62
     5
 63
     7
421
 16777215
 74
     1
 91
        4
 64
     7
 65
   257
 75
     1
175
     1
 42
1.0
 92
       12
 66
     7
 43
1.0
 76
     1
 77
     6
 78
     2
 67
     7
 79
     5
170
     0
171
     0
290
     0
174
     0
 93
        1
 44
0.0
173
     0
291
     1
 45
0.0
1001
ACAD
1000
AcDbSavedByObjectVersion
1070
     0
  0
VISUALSTYLE
  5
AD
102
{ACAD_XDICTIONARY
360
17B
102
}
102
{ACAD_REACTORS
330
2A
102
}
330
2A
100
AcDbVisualStyle
  2

 70
     5
 71
     0
 72
     2
 73
     0
 90
        0
 40
-0.6
 41
-30.0
 62
     5
 63
     7
421
 16777215
 74
     1
 91
        4
 64
     7
 65
   257
 75
     1
175
     1
 42
1.0
 92
        0
 66
   257
 43
1.0
 76
     1
 77
     6
 78
     2
 67
     7
 79
     3
170
     0
171
     0
290
     0
174
     0
 93
        1
 44
0.0
173
     0
291
     0
 45
0.0
1001
ACAD
1000
AcDbSavedByObjectVersion
1070
     0
  0
VISUALSTYLE
  5
B1
102
{ACAD_XDICTIONARY
360
183
102
}
102
{ACAD_REACTORS
330
2A
102
}
330
2A
100
AcDbVisualStyle
  2

 70
    25
 71
     2
 72
     2
 73
     1
 90
        1
 40
0.5
 41
-30.0
 62
     5
 63
     7
421
 16777215
 74
     1
 91
        0
 64
     7
 65
   257
 75
     1
175
     1
 42
1.0
 92
        8
 66
     7
 43
1.0
 76
     1
 77
     6
 78
     2
 67
     7
 79
     3
170
     0
171
     0
290
     0
174
     0
 93
       13
 44
0.0
173
     0
291
     0
 45
0.0
1001
ACAD
1000
AcDbSavedByObjectVersion
1070
     0
  0
DICTIONARYVAR
  5
D5
102
{ACAD_REACTORS
330
D2
102
}
330
D2
100
DictionaryVariables
280
     0
  1
1:1
  0
DICTIONARYVAR
  5
D4
102
{ACAD_REACTORS
330
D2
102
}
330
D2
100
DictionaryVariables
280
     0
  1
STANDARD
  0
DICTIONARYVAR
  5
D3
102
{ACAD_REACTORS
330
D2
102
}
330
D2
100
DictionaryVariables
280
     0
  1
STANDARD
  0
DICTIONARYVAR
  5
D6
102
{ACAD_REACTORS
330
D2
102
}
330
D2
100
DictionaryVariables
280
     0
  1
1
  0
DICTIONARYVAR
  5
D7
102
{ACAD_REACTORS
330
D2
102
}
330
D2
100
DictionaryVariables
280
     0
  1
15
  0
DICTIONARY
  5
9E
330
9D
100
AcDbDictionary
280
     1
281
     1
  3
BUMPTILE
360
A0
  3
DIFFUSETILE
360
9F
  3
OPACITYTILE
360
A3
  3
REFLECTIONTILE
360
A2
  3
REFRACTIONTILE
360
A4
  3
SPECULARTILE
360
A1
  0
DICTIONARY
  5
96
330
95
100
AcDbDictionary
280
     1
281
     1
  3
BUMPTILE
360
98
  3
DIFFUSETILE
360
97
  3
OPACITYTILE
360
9B
  3
REFLECTIONTILE
360
9A
  3
REFRACTIONTILE
360
9C
  3
SPECULARTILE
360
99
  0
DICTIONARY
  5
A6
330
A5
100
AcDbDictionary
280
     1
281
     1
  3
BUMPTILE
360
A8
  3
DIFFUSETILE
360
A7
  3
OPACITYTILE
360
AB
  3
REFLECTIONTILE
360
AA
  3
REFRACTIONTILE
360
AC
  3
SPECULARTILE
360
A9
  0
DICTIONARY
  5
158
330
B9
100
AcDbDictionary
280
     1
281
     1
  3
ACAD_XREC_ROUNDTRIP
360
159
  0
DICTIONARY
  5
D8
330
B8
100
AcDbDictionary
280
     1
281
     1
  3
ACAD_ROUNDTRIP_2008_TABLESTYLE_CELLSTYLEMAP
360
157
  0
DICTIONARY
  5
163
330
2F
100
AcDbDictionary
280
     1
281
     1
  3
ACAD_XREC_ROUNDTRIP
360
164
  0
DICTIONARY
  5
167
330
31
100
AcDbDictionary
280
     1
281
     1
  3
ACAD_XREC_ROUNDTRIP
360
168
  0
DICTIONARY
  5
165
330
30
100
AcDbDictionary
280
     1
281
     1
  3
ACAD_XREC_ROUNDTRIP
360
166
  0
DICTIONARY
  5
169
330
32
100
AcDbDictionary
280
     1
281
     1
  3
ACAD_XREC_ROUNDTRIP
360
16A
  0
DICTIONARY
  5
171
330
36
100
AcDbDictionary
280
     1
281
     1
  3
ACAD_XREC_ROUNDTRIP
360
172
  0
DICTIONARY
  5
179
330
3A
100
AcDbDictionary
280
     1
281
     1
  3
ACAD_XREC_ROUNDTRIP
360
17A
  0
DICTIONARY
  5
16D
330
34
100
AcDbDictionary
280
     1
281
     1
  3
ACAD_XREC_ROUNDTRIP
360
16E
  0
DICTIONARY
  5
16F
330
35
100
AcDbDictionary
280
     1
281
     1
  3
ACAD_XREC_ROUNDTRIP
360
170
  0
DICTIONARY
  5
18D
330
B6
100
AcDbDictionary
280
     1
281
     1
  3
ACAD_XREC_ROUNDTRIP
360
18E
  0
DICTIONARY
  5
177
330
39
100
AcDbDictionary
280
     1
281
     1
  3
ACAD_XREC_ROUNDTRIP
360
178
  0
DICTIONARY
  5
15B
330
2B
100
AcDbDictionary
280
     1
281
     1
  3
ACAD_XREC_ROUNDTRIP
360
15C
  0
DICTIONARY
  5
15D
330
2C
100
AcDbDictionary
280
     1
281
     1
  3
ACAD_XREC_ROUNDTRIP
360
15E
  0
DICTIONARY
  5
15F
330
2D
100
AcDbDictionary
280
     1
281
     1
  3
ACAD_XREC_ROUNDTRIP
360
160
  0
DICTIONARY
  5
161
330
2E
100
AcDbDictionary
280
     1
281
     1
  3
ACAD_XREC_ROUNDTRIP
360
162
  0
DICTIONARY
  5
17D
330
AE
100
AcDbDictionary
280
     1
281
     1
  3
ACAD_XREC_ROUNDTRIP
360
17E
  0
DICTIONARY
  5
189
330
B4
100
AcDbDictionary
280
     1
281
     1
  3
ACAD_XREC_ROUNDTRIP
360
18A
  0
DICTIONARY
  5
175
330
38
100
AcDbDictionary
280
     1
281
     1
  3
ACAD_XREC_ROUNDTRIP
360
176
  0
DICTIONARY
  5
18B
330
B5
100
AcDbDictionary
280
     1
281
     1
  3
ACAD_XREC_ROUNDTRIP
360
18C
  0
DICTIONARY
  5
16B
330
33
100
AcDbDictionary
280
     1
281
     1
  3
ACAD_XREC_ROUNDTRIP
360
16C
  0
DICTIONARY
  5
187
330
B3
100
AcDbDictionary
280
     1
281
     1
  3
ACAD_XREC_ROUNDTRIP
360
188
  0
DICTIONARY
  5
185
330
B2
100
AcDbDictionary
280
     1
281
     1
  3
ACAD_XREC_ROUNDTRIP
360
186
  0
DICTIONARY
  5
17F
330
AF
100
AcDbDictionary
280
     1
281
     1
  3
ACAD_XREC_ROUNDTRIP
360
180
  0
DICTIONARY
  5
181
330
B0
100
AcDbDictionary
280
     1
281
     1
  3
ACAD_XREC_ROUNDTRIP
360
182
  0
DICTIONARY
  5
173
330
37
100
AcDbDictionary
280
     1
281
     1
  3
ACAD_XREC_ROUNDTRIP
360
174
  0
DICTIONARY
  5
17B
330
AD
100
AcDbDictionary
280
     1
281
     1
  3
ACAD_XREC_ROUNDTRIP
360
17C
  0
DICTIONARY
  5
183
330
B1
100
AcDbDictionary
280
     1
281
     1
  3
ACAD_XREC_ROUNDTRIP
360
184
  0
XRECORD
  5
A0
102
{ACAD_REACTORS
330
9E
102
}
330
9E
100
AcDbXrecord
280
     1
270
     1
271
     1
  0
XRECORD
  5
9F
102
{ACAD_REACTORS
330
9E
102
}
330
9E
100
AcDbXrecord
280
     1
270
     1
271
     1
  0
XRECORD
  5
A3
102
{ACAD_REACTORS
330
9E
102
}
330
9E
100
AcDbXrecord
280
     1
270
     1
271
     1
  0
XRECORD
  5
A2
102
{ACAD_REACTORS
330
9E
102
}
330
9E
100
AcDbXrecord
280
     1
270
     1
271
     1
  0
XRECORD
  5
A4
102
{ACAD_REACTORS
330
9E
102
}
330
9E
100
AcDbXrecord
280
     1
270
     1
271
     1
  0
XRECORD
  5
A1
102
{ACAD_REACTORS
330
9E
102
}
330
9E
100
AcDbXrecord
280
     1
270
     1
271
     1
  0
XRECORD
  5
98
102
{ACAD_REACTORS
330
96
102
}
330
96
100
AcDbXrecord
280
     1
270
     1
271
     1
  0
XRECORD
  5
97
102
{ACAD_REACTORS
330
96
102
}
330
96
100
AcDbXrecord
280
     1
270
     1
271
     1
  0
XRECORD
  5
9B
102
{ACAD_REACTORS
330
96
102
}
330
96
100
AcDbXrecord
280
     1
270
     1
271
     1
  0
XRECORD
  5
9A
102
{ACAD_REACTORS
330
96
102
}
330
96
100
AcDbXrecord
280
     1
270
     1
271
     1
  0
XRECORD
  5
9C
102
{ACAD_REACTORS
330
96
102
}
330
96
100
AcDbXrecord
280
     1
270
     1
271
     1
  0
XRECORD
  5
99
102
{ACAD_REACTORS
330
96
102
}
330
96
100
AcDbXrecord
280
     1
270
     1
271
     1
  0
XRECORD
  5
A8
102
{ACAD_REACTORS
330
A6
102
}
330
A6
100
AcDbXrecord
280
     1
270
     1
271
     1
  0
XRECORD
  5
A7
102
{ACAD_REACTORS
330
A6
102
}
330
A6
100
AcDbXrecord
280
     1
270
     1
271
     1
  0
XRECORD
  5
AB
102
{ACAD_REACTORS
330
A6
102
}
330
A6
100
AcDbXrecord
280
     1
270
     1
271
     1
  0
XRECORD
  5
AA
102
{ACAD_REACTORS
330
A6
102
}
330
A6
100
AcDbXrecord
280
     1
270
     1
271
     1
  0
XRECORD
  5
AC
102
{ACAD_REACTORS
330
A6
102
}
330
A6
100
AcDbXrecord
280
     1
270
     1
271
     1
  0
XRECORD
  5
A9
102
{ACAD_REACTORS
330
A6
102
}
330
A6
100
AcDbXrecord
280
     1
270
     1
271
     1
  0
XRECORD
  5
159
102
{ACAD_REACTORS
330
158
102
}
330
158
100
AcDbXrecord
280
     1
102
ACAD_ROUNDTRIP_2012_MLEADER_STYLE
298
     1
  0
CELLSTYLEMAP
  5
157
102
{ACAD_REACTORS
330
D8
102
}
330
D8
100
AcDbCellStyleMap
 90
        3
300
CELLSTYLE
  1
TABLEFORMAT_BEGIN
 90
        5
170
     1
 91
        0
 92
    32768
 62
   257
 93
        1
300
CONTENTFORMAT
  1
CONTENTFORMAT_BEGIN
 90
        0
 91
        0
 92
      512
 93
        0
300

 40
0.0
140
1.0
 94
        5
 62
     0
340
11
144
0.25
309
CONTENTFORMAT_END
171
     1
301
MARGIN
  1
CELLMARGIN_BEGIN
 40
0.06
 40
0.06
 40
0.06
 40
0.06
 40
0.18
 40
0.18
309
CELLMARGIN_END
 94
        6
 95
        1
302
GRIDFORMAT
  1
GRIDFORMAT_BEGIN
 90
        0
 91
        1
 62
     0
 92
       -2
340
0
 93
        0
 40
0.045
309
GRIDFORMAT_END
 95
        2
302
GRIDFORMAT
  1
GRIDFORMAT_BEGIN
 90
        0
 91
        1
 62
     0
 92
       -2
340
0
 93
        0
 40
0.045
309
GRIDFORMAT_END
 95
        4
302
GRIDFORMAT
  1
GRIDFORMAT_BEGIN
 90
        0
 91
        1
 62
     0
 92
       -2
340
0
 93
        0
 40
0.045
309
GRIDFORMAT_END
 95
        8
302
GRIDFORMAT
  1
GRIDFORMAT_BEGIN
 90
        0
 91
        1
 62
     0
 92
       -2
340
0
 93
        0
 40
0.045
309
GRIDFORMAT_END
 95
       16
302
GRIDFORMAT
  1
GRIDFORMAT_BEGIN
 90
        0
 91
        1
 62
     0
 92
       -2
340
0
 93
        0
 40
0.045
309
GRIDFORMAT_END
 95
       32
302
GRIDFORMAT
  1
GRIDFORMAT_BEGIN
 90
        0
 91
        1
 62
     0
 92
       -2
340
0
 93
        0
 40
0.045
309
GRIDFORMAT_END
309
TABLEFORMAT_END
  1
CELLSTYLE_BEGIN
 90
        1
 91
        1
300
_TITLE
309
CELLSTYLE_END
300
CELLSTYLE
  1
TABLEFORMAT_BEGIN
 90
        5
170
     1
 91
        0
 92
        0
 62
   257
 93
        1
300
CONTENTFORMAT
  1
CONTENTFORMAT_BEGIN
 90
        0
 91
        0
 92
      512
 93
        0
300

 40
0.0
140
1.0
 94
        5
 62
     0
340
11
144
0.18
309
CONTENTFORMAT_END
171
     1
301
MARGIN
  1
CELLMARGIN_BEGIN
 40
0.06
 40
0.06
 40
0.06
 40
0.06
 40
0.18
 40
0.18
309
CELLMARGIN_END
 94
        6
 95
        1
302
GRIDFORMAT
  1
GRIDFORMAT_BEGIN
 90
        0
 91
        1
 62
     0
 92
       -2
340
0
 93
        0
 40
0.045
309
GRIDFORMAT_END
 95
        2
302
GRIDFORMAT
  1
GRIDFORMAT_BEGIN
 90
        0
 91
        1
 62
     0
 92
       -2
340
0
 93
        0
 40
0.045
309
GRIDFORMAT_END
 95
        4
302
GRIDFORMAT
  1
GRIDFORMAT_BEGIN
 90
        0
 91
        1
 62
     0
 92
       -2
340
0
 93
        0
 40
0.045
309
GRIDFORMAT_END
 95
        8
302
GRIDFORMAT
  1
GRIDFORMAT_BEGIN
 90
        0
 91
        1
 62
     0
 92
       -2
340
0
 93
        0
 40
0.045
309
GRIDFORMAT_END
 95
       16
302
GRIDFORMAT
  1
GRIDFORMAT_BEGIN
 90
        0
 91
        1
 62
     0
 92
       -2
340
0
 93
        0
 40
0.045
309
GRIDFORMAT_END
 95
       32
302
GRIDFORMAT
  1
GRIDFORMAT_BEGIN
 90
        0
 91
        1
 62
     0
 92
       -2
340
0
 93
        0
 40
0.045
309
GRIDFORMAT_END
309
TABLEFORMAT_END
  1
CELLSTYLE_BEGIN
 90
        2
 91
        1
300
_HEADER
309
CELLSTYLE_END
300
CELLSTYLE
  1
TABLEFORMAT_BEGIN
 90
        5
170
     1
 91
        0
 92
        0
 62
   257
 93
        1
300
CONTENTFORMAT
  1
CONTENTFORMAT_BEGIN
 90
        0
 91
        0
 92
      512
 93
        0
300

 40
0.0
140
1.0
 94
        2
 62
     0
340
11
144
0.18
309
CONTENTFORMAT_END
171
     1
301
MARGIN
  1
CELLMARGIN_BEGIN
 40
0.06
 40
0.06
 40
0.06
 40
0.06
 40
0.18
 40
0.18
309
CELLMARGIN_END
 94
        6
 95
        1
302
GRIDFORMAT
  1
GRIDFORMAT_BEGIN
 90
        0
 91
        1
 62
     0
 92
       -2
340
0
 93
        0
 40
0.045
309
GRIDFORMAT_END
 95
        2
302
GRIDFORMAT
  1
GRIDFORMAT_BEGIN
 90
        0
 91
        1
 62
     0
 92
       -2
340
0
 93
        0
 40
0.045
309
GRIDFORMAT_END
 95
        4
302
GRIDFORMAT
  1
GRIDFORMAT_BEGIN
 90
        0
 91
        1
 62
     0
 92
       -2
340
0
 93
        0
 40
0.045
309
GRIDFORMAT_END
 95
        8
302
GRIDFORMAT
  1
GRIDFORMAT_BEGIN
 90
        0
 91
        1
 62
     0
 92
       -2
340
0
 93
        0
 40
0.045
309
GRIDFORMAT_END
 95
       16
302
GRIDFORMAT
  1
GRIDFORMAT_BEGIN
 90
        0
 91
        1
 62
     0
 92
       -2
340
0
 93
        0
 40
0.045
309
GRIDFORMAT_END
 95
       32
302
GRIDFORMAT
  1
GRIDFORMAT_BEGIN
 90
        0
 91
        1
 62
     0
 92
       -2
340
0
 93
        0
 40
0.045
309
GRIDFORMAT_END
309
TABLEFORMAT_END
  1
CELLSTYLE_BEGIN
 90
        3
 91
        2
300
_DATA
309
CELLSTYLE_END
  0
XRECORD
  5
164
102
{ACAD_REACTORS
330
163
102
}
330
163
100
AcDbXrecord
280
     1
102
RTVSPropertyOp0
 70
     1
102
RTVSPropertyOp1
 70
     1
102
RTVSPropertyOp2
 70
     1
102
RTVSPropertyOp3
 70
     1
102
RTVSPropertyOp4
 70
     1
102
RTVSPropertyOp5
 70
     1
102
RTVSPropertyOp6
 70
     1
102
RTVSPropertyOp7
 70
     1
102
RTVSPropertyOp8
 70
     1
102
RTVSPropertyOp9
 70
     1
102
RTVSPropertyOp10
 70
     1
102
RTVSPropertyOp11
 70
     1
102
RTVSPropertyOp12
 70
     1
102
RTVSPropertyOp13
 70
     1
102
RTVSPropertyOp14
 70
     1
102
RTVSPropertyOp15
 70
     1
102
RTVSPropertyOp16
 70
     1
102
RTVSPropertyOp17
 70
     1
102
RTVSPropertyOp18
 70
     1
102
RTVSPropertyOp19
 70
     1
102
RTVSPropertyOp20
 70
     1
102
RTVSPropertyOp21
 70
     1
102
RTVSPropertyOp22
 70
     1
102
RTVSPropertyOp23
 70
     1
102
RTVSPropertyOp24
 70
     1
102
RTVSPropertyOp25
 70
     1
102
RTVSPropertyOp26
 70
     1
102
RTVSPropertyOp27
 70
     1
102
RTVSPropertyOp28
 70
     1
102
RTVSPropertyOp29
 70
     1
102
RTVSPropertyOp30
 70
     1
102
RTVSPropertyOp31
 70
     1
102
RTVSPropertyOp32
 70
     1
  0
XRECORD
  5
168
102
{ACAD_REACTORS
330
167
102
}
330
167
100
AcDbXrecord
280
     1
102
RTVSPropertyOp0
 70
     1
102
RTVSPropertyOp1
 70
     1
102
RTVSPropertyOp2
 70
     1
102
RTVSPropertyOp3
 70
     1
102
RTVSPropertyOp4
 70
     1
102
RTVSPropertyOp5
 70
     1
102
RTVSPropertyOp6
 70
     1
102
RTVSPropertyOp7
 70
     1
102
RTVSPropertyOp8
 70
     1
102
RTVSPropertyOp9
 70
     1
102
RTVSPropertyOp10
 70
     1
102
RTVSPropertyOp11
 70
     1
102
RTVSPropertyOp12
 70
     1
102
RTVSPropertyOp13
 70
     1
102
RTVSPropertyOp14
 70
     1
102
RTVSPropertyOp15
 70
     1
102
RTVSPropertyOp16
 70
     1
102
RTVSPropertyOp17
 70
     1
102
RTVSPropertyOp18
 70
     1
102
RTVSPropertyOp19
 70
     1
102
RTVSPropertyOp20
 70
     1
102
RTVSPropertyOp21
 70
     1
102
RTVSPropertyOp22
 70
     1
102
RTVSPropertyOp23
 70
     1
102
RTVSPropertyOp24
 70
     1
102
RTVSPropertyOp25
 70
     1
102
RTVSPropertyOp26
 70
     1
102
RTVSPropertyOp27
 70
     1
102
RTVSPropertyOp28
 70
     1
102
RTVSPropertyOp29
 70
     1
102
RTVSPropertyOp30
 70
     1
102
RTVSPropertyOp31
 70
     1
102
RTVSPropertyOp32
 70
     1
  0
XRECORD
  5
166
102
{ACAD_REACTORS
330
165
102
}
330
165
100
AcDbXrecord
280
     1
102
RTVSPropertyOp0
 70
     1
102
RTVSPropertyOp1
 70
     1
102
RTVSPropertyOp2
 70
     1
102
RTVSPropertyOp3
 70
     1
102
RTVSPropertyOp4
 70
     1
102
RTVSPropertyOp5
 70
     1
102
RTVSPropertyOp6
 70
     1
102
RTVSPropertyOp7
 70
     1
102
RTVSPropertyOp8
 70
     1
102
RTVSPropertyOp9
 70
     1
102
RTVSPropertyOp10
 70
     1
102
RTVSPropertyOp11
 70
     1
102
RTVSPropertyOp12
 70
     1
102
RTVSPropertyOp13
 70
     1
102
RTVSPropertyOp14
 70
     1
102
RTVSPropertyOp15
 70
     1
102
RTVSPropertyOp16
 70
     1
102
RTVSPropertyOp17
 70
     1
102
RTVSPropertyOp18
 70
     1
102
RTVSPropertyOp19
 70
     1
102
RTVSPropertyOp20
 70
     1
102
RTVSPropertyOp21
 70
     1
102
RTVSPropertyOp22
 70
     1
102
RTVSPropertyOp23
 70
     1
102
RTVSPropertyOp24
 70
     1
102
RTVSPropertyOp25
 70
     1
102
RTVSPropertyOp26
 70
     1
102
RTVSPropertyOp27
 70
     1
102
RTVSPropertyOp28
 70
     1
102
RTVSPropertyOp29
 70
     1
102
RTVSPropertyOp30
 70
     1
102
RTVSPropertyOp31
 70
     1
102
RTVSPropertyOp32
 70
     1
  0
XRECORD
  5
16A
102
{ACAD_REACTORS
330
169
102
}
330
169
100
AcDbXrecord
280
     1
102
RTVSPropertyOp0
 70
     1
102
RTVSPropertyOp1
 70
     1
102
RTVSPropertyOp2
 70
     1
102
RTVSPropertyOp3
 70
     1
102
RTVSPropertyOp4
 70
     1
102
RTVSPropertyOp5
 70
     1
102
RTVSPropertyOp6
 70
     1
102
RTVSPropertyOp7
 70
     1
102
RTVSPropertyOp8
 70
     1
102
RTVSPropertyOp9
 70
     1
102
RTVSPropertyOp10
 70
     1
102
RTVSPropertyOp11
 70
     1
102
RTVSPropertyOp12
 70
     1
102
RTVSPropertyOp13
 70
     1
102
RTVSPropertyOp14
 70
     1
102
RTVSPropertyOp15
 70
     1
102
RTVSPropertyOp16
 70
     1
102
RTVSPropertyOp17
 70
     1
102
RTVSPropertyOp18
 70
     1
102
RTVSPropertyOp19
 70
     1
102
RTVSPropertyOp20
 70
     1
102
RTVSPropertyOp21
 70
     1
102
RTVSPropertyOp22
 70
     1
102
RTVSPropertyOp23
 70
     1
102
RTVSPropertyOp24
 70
     1
102
RTVSPropertyOp25
 70
     1
102
RTVSPropertyOp26
 70
     1
102
RTVSPropertyOp27
 70
     1
102
RTVSPropertyOp28
 70
     1
102
RTVSPropertyOp29
 70
     1
102
RTVSPropertyOp30
 70
     1
102
RTVSPropertyOp31
 70
     1
102
RTVSPropertyOp32
 70
     1
  0
XRECORD
  5
172
102
{ACAD_REACTORS
330
171
102
}
330
171
100
AcDbXrecord
280
     1
102
RTVSPropertyOp0
 70
     1
102
RTVSPropertyOp1
 70
     1
102
RTVSPropertyOp2
 70
     1
102
RTVSPropertyOp3
 70
     1
102
RTVSPropertyOp4
 70
     1
102
RTVSPropertyOp5
 70
     1
102
RTVSPropertyOp6
 70
     1
102
RTVSPropertyOp7
 70
     1
102
RTVSPropertyOp8
 70
     1
102
RTVSPropertyOp9
 70
     1
102
RTVSPropertyOp10
 70
     1
102
RTVSPropertyOp11
 70
     1
102
RTVSPropertyOp12
 70
     1
102
RTVSPropertyOp13
 70
     1
102
RTVSPropertyOp14
 70
     1
102
RTVSPropertyOp15
 70
     1
102
RTVSPropertyOp16
 70
     1
102
RTVSPropertyOp17
 70
     1
102
RTVSPropertyOp18
 70
     1
102
RTVSPropertyOp19
 70
     1
102
RTVSPropertyOp20
 70
     1
102
RTVSPropertyOp21
 70
     1
102
RTVSPropertyOp22
 70
     1
102
RTVSPropertyOp23
 70
     1
102
RTVSPropertyOp24
 70
     1
102
RTVSPropertyOp25
 70
     1
102
RTVSPropertyOp26
 70
     1
102
RTVSPropertyOp27
 70
     1
102
RTVSPropertyOp28
 70
     1
102
RTVSPropertyOp29
 70
     1
102
RTVSPropertyOp30
 70
     1
102
RTVSPropertyOp31
 70
     1
102
RTVSPropertyOp32
 70
     1
  0
XRECORD
  5
17A
102
{ACAD_REACTORS
330
179
102
}
330
179
100
AcDbXrecord
280
     1
102
RTVSPropertyOp0
 70
     1
102
RTVSPropertyOp1
 70
     1
102
RTVSPropertyOp2
 70
     1
102
RTVSPropertyOp3
 70
     1
102
RTVSPropertyOp4
 70
     1
102
RTVSPropertyOp5
 70
     1
102
RTVSPropertyOp6
 70
     1
102
RTVSPropertyOp7
 70
     1
102
RTVSPropertyOp8
 70
     1
102
RTVSPropertyOp9
 70
     1
102
RTVSPropertyOp10
 70
     1
102
RTVSPropertyOp11
 70
     1
102
RTVSPropertyOp12
 70
     1
102
RTVSPropertyOp13
 70
     1
102
RTVSPropertyOp14
 70
     1
102
RTVSPropertyOp15
 70
     1
102
RTVSPropertyOp16
 70
     1
102
RTVSPropertyOp17
 70
     1
102
RTVSPropertyOp18
 70
     1
102
RTVSPropertyOp19
 70
     1
102
RTVSPropertyOp20
 70
     1
102
RTVSPropertyOp21
 70
     1
102
RTVSPropertyOp22
 70
     1
102
RTVSPropertyOp23
 70
     1
102
RTVSPropertyOp24
 70
     1
102
RTVSPropertyOp25
 70
     1
102
RTVSPropertyOp26
 70
     1
102
RTVSPropertyOp27
 70
     1
102
RTVSPropertyOp28
 70
     1
102
RTVSPropertyOp29
 70
     1
102
RTVSPropertyOp30
 70
     1
102
RTVSPropertyOp31
 70
     1
102
RTVSPropertyOp32
 70
     1
  0
XRECORD
  5
16E
102
{ACAD_REACTORS
330
16D
102
}
330
16D
100
AcDbXrecord
280
     1
102
RTVSPropertyOp0
 70
     1
102
RTVSPropertyOp1
 70
     1
102
RTVSPropertyOp2
 70
     1
102
RTVSPropertyOp3
 70
     1
102
RTVSPropertyOp4
 70
     1
102
RTVSPropertyOp5
 70
     1
102
RTVSPropertyOp6
 70
     1
102
RTVSPropertyOp7
 70
     1
102
RTVSPropertyOp8
 70
     1
102
RTVSPropertyOp9
 70
     1
102
RTVSPropertyOp10
 70
     1
102
RTVSPropertyOp11
 70
     1
102
RTVSPropertyOp12
 70
     1
102
RTVSPropertyOp13
 70
     1
102
RTVSPropertyOp14
 70
     1
102
RTVSPropertyOp15
 70
     1
102
RTVSPropertyOp16
 70
     1
102
RTVSPropertyOp17
 70
     1
102
RTVSPropertyOp18
 70
     1
102
RTVSPropertyOp19
 70
     1
102
RTVSPropertyOp20
 70
     1
102
RTVSPropertyOp21
 70
     1
102
RTVSPropertyOp22
 70
     1
102
RTVSPropertyOp23
 70
     1
102
RTVSPropertyOp24
 70
     1
102
RTVSPropertyOp25
 70
     1
102
RTVSPropertyOp26
 70
     1
102
RTVSPropertyOp27
 70
     1
102
RTVSPropertyOp28
 70
     1
102
RTVSPropertyOp29
 70
     1
102
RTVSPropertyOp30
 70
     1
102
RTVSPropertyOp31
 70
     1
102
RTVSPropertyOp32
 70
     1
  0
XRECORD
  5
170
102
{ACAD_REACTORS
330
16F
102
}
330
16F
100
AcDbXrecord
280
     1
102
RTVSPropertyOp0
 70
     1
102
RTVSPropertyOp1
 70
     1
102
RTVSPropertyOp2
 70
     1
102
RTVSPropertyOp3
 70
     1
102
RTVSPropertyOp4
 70
     1
102
RTVSPropertyOp5
 70
     1
102
RTVSPropertyOp6
 70
     1
102
RTVSPropertyOp7
 70
     1
102
RTVSPropertyOp8
 70
     1
102
RTVSPropertyOp9
 70
     1
102
RTVSPropertyOp10
 70
     1
102
RTVSPropertyOp11
 70
     1
102
RTVSPropertyOp12
 70
     1
102
RTVSPropertyOp13
 70
     1
102
RTVSPropertyOp14
 70
     1
102
RTVSPropertyOp15
 70
     1
102
RTVSPropertyOp16
 70
     1
102
RTVSPropertyOp17
 70
     1
102
RTVSPropertyOp18
 70
     1
102
RTVSPropertyOp19
 70
     1
102
RTVSPropertyOp20
 70
     1
102
RTVSPropertyOp21
 70
     1
102
RTVSPropertyOp22
 70
     1
102
RTVSPropertyOp23
 70
     1
102
RTVSPropertyOp24
 70
     1
102
RTVSPropertyOp25
 70
     1
102
RTVSPropertyOp26
 70
     1
102
RTVSPropertyOp27
 70
     1
102
RTVSPropertyOp28
 70
     1
102
RTVSPropertyOp29
 70
     1
102
RTVSPropertyOp30
 70
     1
102
RTVSPropertyOp31
 70
     1
102
RTVSPropertyOp32
 70
     1
  0
XRECORD
  5
18E
102
{ACAD_REACTORS
330
18D
102
}
330
18D
100
AcDbXrecord
280
     1
102
RTVSPropertyOp0
 70
     0
102
RTVSPropertyOp1
 70
     0
102
RTVSPropertyOp2
 70
     0
102
RTVSPropertyOp3
 70
     0
102
RTVSPropertyOp4
 70
     0
102
RTVSPropertyOp5
 70
     0
102
RTVSPropertyOp6
 70
     0
102
RTVSPropertyOp7
 70
     0
102
RTVSPropertyOp8
 70
     0
102
RTVSPropertyOp9
 70
     0
102
RTVSPropertyOp10
 70
     0
102
RTVSPropertyOp11
 70
     0
102
RTVSPropertyOp12
 70
     0
102
RTVSPropertyOp13
 70
     0
102
RTVSPropertyOp14
 70
     2
102
RTVSPropertyOp15
 70
     0
102
RTVSPropertyOp16
 70
     0
102
RTVSPropertyOp17
 70
     0
102
RTVSPropertyOp18
 70
     0
102
RTVSPropertyOp19
 70
     0
102
RTVSPropertyOp20
 70
     0
102
RTVSPropertyOp21
 70
     0
102
RTVSPropertyOp22
 70
     0
102
RTVSPropertyOp23
 70
     0
102
RTVSPropertyOp24
 70
     0
102
RTVSPropertyOp25
 70
     0
102
RTVSPropertyOp26
 70
     0
102
RTVSPropertyOp27
 70
     0
102
RTVSPropertyOp28
 70
     0
102
RTVSPropertyOp29
 70
     0
102
RTVSPropertyOp30
 70
     0
102
RTVSPropertyOp31
 70
     0
102
RTVSPropertyOp32
 70
     0
  0
XRECORD
  5
178
102
{ACAD_REACTORS
330
177
102
}
330
177
100
AcDbXrecord
280
     1
102
RTVSPropertyOp0
 70
     1
102
RTVSPropertyOp1
 70
     1
102
RTVSPropertyOp2
 70
     1
102
RTVSPropertyOp3
 70
     1
102
RTVSPropertyOp4
 70
     1
102
RTVSPropertyOp5
 70
     1
102
RTVSPropertyOp6
 70
     1
102
RTVSPropertyOp7
 70
     1
102
RTVSPropertyOp8
 70
     1
102
RTVSPropertyOp9
 70
     1
102
RTVSPropertyOp10
 70
     1
102
RTVSPropertyOp11
 70
     1
102
RTVSPropertyOp12
 70
     1
102
RTVSPropertyOp13
 70
     1
102
RTVSPropertyOp14
 70
     1
102
RTVSPropertyOp15
 70
     1
102
RTVSPropertyOp16
 70
     1
102
RTVSPropertyOp17
 70
     1
102
RTVSPropertyOp18
 70
     1
102
RTVSPropertyOp19
 70
     1
102
RTVSPropertyOp20
 70
     1
102
RTVSPropertyOp21
 70
     1
102
RTVSPropertyOp22
 70
     1
102
RTVSPropertyOp23
 70
     1
102
RTVSPropertyOp24
 70
     1
102
RTVSPropertyOp25
 70
     1
102
RTVSPropertyOp26
 70
     1
102
RTVSPropertyOp27
 70
     1
102
RTVSPropertyOp28
 70
     1
102
RTVSPropertyOp29
 70
     1
102
RTVSPropertyOp30
 70
     1
102
RTVSPropertyOp31
 70
     1
102
RTVSPropertyOp32
 70
     1
  0
XRECORD
  5
15C
102
{ACAD_REACTORS
330
15B
102
}
330
15B
100
AcDbXrecord
280
     1
102
RTVSPropertyOp0
 70
     1
102
RTVSPropertyOp1
 70
     1
102
RTVSPropertyOp2
 70
     1
102
RTVSPropertyOp3
 70
     1
102
RTVSPropertyOp4
 70
     1
102
RTVSPropertyOp5
 70
     1
102
RTVSPropertyOp6
 70
     1
102
RTVSPropertyOp7
 70
     1
102
RTVSPropertyOp8
 70
     1
102
RTVSPropertyOp9
 70
     1
102
RTVSPropertyOp10
 70
     1
102
RTVSPropertyOp11
 70
     1
102
RTVSPropertyOp12
 70
     1
102
RTVSPropertyOp13
 70
     1
102
RTVSPropertyOp14
 70
     1
102
RTVSPropertyOp15
 70
     1
102
RTVSPropertyOp16
 70
     1
102
RTVSPropertyOp17
 70
     1
102
RTVSPropertyOp18
 70
     1
102
RTVSPropertyOp19
 70
     1
102
RTVSPropertyOp20
 70
     1
102
RTVSPropertyOp21
 70
     1
102
RTVSPropertyOp22
 70
     1
102
RTVSPropertyOp23
 70
     1
102
RTVSPropertyOp24
 70
     1
102
RTVSPropertyOp25
 70
     1
102
RTVSPropertyOp26
 70
     1
102
RTVSPropertyOp27
 70
     1
102
RTVSPropertyOp28
 70
     1
102
RTVSPropertyOp29
 70
     1
102
RTVSPropertyOp30
 70
     1
102
RTVSPropertyOp31
 70
     1
102
RTVSPropertyOp32
 70
     1
  0
XRECORD
  5
15E
102
{ACAD_REACTORS
330
15D
102
}
330
15D
100
AcDbXrecord
280
     1
102
RTVSPropertyOp0
 70
     1
102
RTVSPropertyOp1
 70
     1
102
RTVSPropertyOp2
 70
     1
102
RTVSPropertyOp3
 70
     1
102
RTVSPropertyOp4
 70
     1
102
RTVSPropertyOp5
 70
     1
102
RTVSPropertyOp6
 70
     1
102
RTVSPropertyOp7
 70
     1
102
RTVSPropertyOp8
 70
     1
102
RTVSPropertyOp9
 70
     1
102
RTVSPropertyOp10
 70
     1
102
RTVSPropertyOp11
 70
     1
102
RTVSPropertyOp12
 70
     1
102
RTVSPropertyOp13
 70
     1
102
RTVSPropertyOp14
 70
     1
102
RTVSPropertyOp15
 70
     1
102
RTVSPropertyOp16
 70
     1
102
RTVSPropertyOp17
 70
     1
102
RTVSPropertyOp18
 70
     1
102
RTVSPropertyOp19
 70
     1
102
RTVSPropertyOp20
 70
     1
102
RTVSPropertyOp21
 70
     1
102
RTVSPropertyOp22
 70
     1
102
RTVSPropertyOp23
 70
     1
102
RTVSPropertyOp24
 70
     1
102
RTVSPropertyOp25
 70
     1
102
RTVSPropertyOp26
 70
     1
102
RTVSPropertyOp27
 70
     1
102
RTVSPropertyOp28
 70
     1
102
RTVSPropertyOp29
 70
     1
102
RTVSPropertyOp30
 70
     1
102
RTVSPropertyOp31
 70
     1
102
RTVSPropertyOp32
 70
     1
  0
XRECORD
  5
160
102
{ACAD_REACTORS
330
15F
102
}
330
15F
100
AcDbXrecord
280
     1
102
RTVSPropertyOp0
 70
     1
102
RTVSPropertyOp1
 70
     1
102
RTVSPropertyOp2
 70
     1
102
RTVSPropertyOp3
 70
     1
102
RTVSPropertyOp4
 70
     1
102
RTVSPropertyOp5
 70
     1
102
RTVSPropertyOp6
 70
     1
102
RTVSPropertyOp7
 70
     1
102
RTVSPropertyOp8
 70
     1
102
RTVSPropertyOp9
 70
     1
102
RTVSPropertyOp10
 70
     1
102
RTVSPropertyOp11
 70
     1
102
RTVSPropertyOp12
 70
     1
102
RTVSPropertyOp13
 70
     1
102
RTVSPropertyOp14
 70
     1
102
RTVSPropertyOp15
 70
     1
102
RTVSPropertyOp16
 70
     1
102
RTVSPropertyOp17
 70
     1
102
RTVSPropertyOp18
 70
     1
102
RTVSPropertyOp19
 70
     1
102
RTVSPropertyOp20
 70
     1
102
RTVSPropertyOp21
 70
     1
102
RTVSPropertyOp22
 70
     1
102
RTVSPropertyOp23
 70
     1
102
RTVSPropertyOp24
 70
     1
102
RTVSPropertyOp25
 70
     1
102
RTVSPropertyOp26
 70
     1
102
RTVSPropertyOp27
 70
     1
102
RTVSPropertyOp28
 70
     1
102
RTVSPropertyOp29
 70
     1
102
RTVSPropertyOp30
 70
     1
102
RTVSPropertyOp31
 70
     1
102
RTVSPropertyOp32
 70
     1
  0
XRECORD
  5
162
102
{ACAD_REACTORS
330
161
102
}
330
161
100
AcDbXrecord
280
     1
102
RTVSPropertyOp0
 70
     1
102
RTVSPropertyOp1
 70
     1
102
RTVSPropertyOp2
 70
     1
102
RTVSPropertyOp3
 70
     1
102
RTVSPropertyOp4
 70
     1
102
RTVSPropertyOp5
 70
     1
102
RTVSPropertyOp6
 70
     1
102
RTVSPropertyOp7
 70
     1
102
RTVSPropertyOp8
 70
     1
102
RTVSPropertyOp9
 70
     1
102
RTVSPropertyOp10
 70
     1
102
RTVSPropertyOp11
 70
     1
102
RTVSPropertyOp12
 70
     1
102
RTVSPropertyOp13
 70
     1
102
RTVSPropertyOp14
 70
     1
102
RTVSPropertyOp15
 70
     1
102
RTVSPropertyOp16
 70
     1
102
RTVSPropertyOp17
 70
     1
102
RTVSPropertyOp18
 70
     1
102
RTVSPropertyOp19
 70
     1
102
RTVSPropertyOp20
 70
     1
102
RTVSPropertyOp21
 70
     1
102
RTVSPropertyOp22
 70
     1
102
RTVSPropertyOp23
 70
     1
102
RTVSPropertyOp24
 70
     1
102
RTVSPropertyOp25
 70
     1
102
RTVSPropertyOp26
 70
     1
102
RTVSPropertyOp27
 70
     1
102
RTVSPropertyOp28
 70
     1
102
RTVSPropertyOp29
 70
     1
102
RTVSPropertyOp30
 70
     1
102
RTVSPropertyOp31
 70
     1
102
RTVSPropertyOp32
 70
     1
  0
XRECORD
  5
17E
102
{ACAD_REACTORS
330
17D
102
}
330
17D
100
AcDbXrecord
280
     1
102
RTVSPropertyOp0
 70
     1
102
RTVSPropertyOp1
 70
     1
102
RTVSPropertyOp2
 70
     1
102
RTVSPropertyOp3
 70
     1
102
RTVSPropertyOp4
 70
     1
102
RTVSPropertyOp5
 70
     1
102
RTVSPropertyOp6
 70
     1
102
RTVSPropertyOp7
 70
     1
102
RTVSPropertyOp8
 70
     1
102
RTVSPropertyOp9
 70
     1
102
RTVSPropertyOp10
 70
     1
102
RTVSPropertyOp11
 70
     1
102
RTVSPropertyOp12
 70
     1
102
RTVSPropertyOp13
 70
     1
102
RTVSPropertyOp14
 70
     1
102
RTVSPropertyOp15
 70
     1
102
RTVSPropertyOp16
 70
     1
102
RTVSPropertyOp17
 70
     1
102
RTVSPropertyOp18
 70
     1
102
RTVSPropertyOp19
 70
     1
102
RTVSPropertyOp20
 70
     1
102
RTVSPropertyOp21
 70
     1
102
RTVSPropertyOp22
 70
     1
102
RTVSPropertyOp23
 70
     1
102
RTVSPropertyOp24
 70
     1
102
RTVSPropertyOp25
 70
     1
102
RTVSPropertyOp26
 70
     1
102
RTVSPropertyOp27
 70
     1
102
RTVSPropertyOp28
 70
     1
102
RTVSPropertyOp29
 70
     1
102
RTVSPropertyOp30
 70
     1
102
RTVSPropertyOp31
 70
     1
102
RTVSPropertyOp32
 70
     1
  0
XRECORD
  5
18A
102
{ACAD_REACTORS
330
189
102
}
330
189
100
AcDbXrecord
280
     1
102
RTVSPropertyOp0
 70
     0
102
RTVSPropertyOp1
 70
     0
102
RTVSPropertyOp2
 70
     0
102
RTVSPropertyOp3
 70
     0
102
RTVSPropertyOp4
 70
     0
102
RTVSPropertyOp5
 70
     0
102
RTVSPropertyOp6
 70
     0
102
RTVSPropertyOp7
 70
     0
102
RTVSPropertyOp8
 70
     0
102
RTVSPropertyOp9
 70
     0
102
RTVSPropertyOp10
 70
     0
102
RTVSPropertyOp11
 70
     0
102
RTVSPropertyOp12
 70
     0
102
RTVSPropertyOp13
 70
     0
102
RTVSPropertyOp14
 70
     2
102
RTVSPropertyOp15
 70
     0
102
RTVSPropertyOp16
 70
     0
102
RTVSPropertyOp17
 70
     0
102
RTVSPropertyOp18
 70
     0
102
RTVSPropertyOp19
 70
     0
102
RTVSPropertyOp20
 70
     0
102
RTVSPropertyOp21
 70
     0
102
RTVSPropertyOp22
 70
     0
102
RTVSPropertyOp23
 70
     0
102
RTVSPropertyOp24
 70
     0
102
RTVSPropertyOp25
 70
     0
102
RTVSPropertyOp26
 70
     0
102
RTVSPropertyOp27
 70
     0
102
RTVSPropertyOp28
 70
     0
102
RTVSPropertyOp29
 70
     0
102
RTVSPropertyOp30
 70
     0
102
RTVSPropertyOp31
 70
     0
102
RTVSPropertyOp32
 70
     0
  0
XRECORD
  5
176
102
{ACAD_REACTORS
330
175
102
}
330
175
100
AcDbXrecord
280
     1
102
RTVSPropertyOp0
 70
     1
102
RTVSPropertyOp1
 70
     1
102
RTVSPropertyOp2
 70
     1
102
RTVSPropertyOp3
 70
     1
102
RTVSPropertyOp4
 70
     1
102
RTVSPropertyOp5
 70
     1
102
RTVSPropertyOp6
 70
     1
102
RTVSPropertyOp7
 70
     1
102
RTVSPropertyOp8
 70
     1
102
RTVSPropertyOp9
 70
     1
102
RTVSPropertyOp10
 70
     1
102
RTVSPropertyOp11
 70
     1
102
RTVSPropertyOp12
 70
     1
102
RTVSPropertyOp13
 70
     1
102
RTVSPropertyOp14
 70
     1
102
RTVSPropertyOp15
 70
     1
102
RTVSPropertyOp16
 70
     1
102
RTVSPropertyOp17
 70
     1
102
RTVSPropertyOp18
 70
     1
102
RTVSPropertyOp19
 70
     1
102
RTVSPropertyOp20
 70
     1
102
RTVSPropertyOp21
 70
     1
102
RTVSPropertyOp22
 70
     1
102
RTVSPropertyOp23
 70
     1
102
RTVSPropertyOp24
 70
     1
102
RTVSPropertyOp25
 70
     1
102
RTVSPropertyOp26
 70
     1
102
RTVSPropertyOp27
 70
     1
102
RTVSPropertyOp28
 70
     1
102
RTVSPropertyOp29
 70
     1
102
RTVSPropertyOp30
 70
     1
102
RTVSPropertyOp31
 70
     1
102
RTVSPropertyOp32
 70
     1
  0
XRECORD
  5
18C
102
{ACAD_REACTORS
330
18B
102
}
330
18B
100
AcDbXrecord
280
     1
102
RTVSPropertyOp0
 70
     0
102
RTVSPropertyOp1
 70
     0
102
RTVSPropertyOp2
 70
     0
102
RTVSPropertyOp3
 70
     0
102
RTVSPropertyOp4
 70
     0
102
RTVSPropertyOp5
 70
     0
102
RTVSPropertyOp6
 70
     0
102
RTVSPropertyOp7
 70
     0
102
RTVSPropertyOp8
 70
     0
102
RTVSPropertyOp9
 70
     0
102
RTVSPropertyOp10
 70
     0
102
RTVSPropertyOp11
 70
     0
102
RTVSPropertyOp12
 70
     0
102
RTVSPropertyOp13
 70
     0
102
RTVSPropertyOp14
 70
     2
102
RTVSPropertyOp15
 70
     0
102
RTVSPropertyOp16
 70
     0
102
RTVSPropertyOp17
 70
     0
102
RTVSPropertyOp18
 70
     0
102
RTVSPropertyOp19
 70
     0
102
RTVSPropertyOp20
 70
     0
102
RTVSPropertyOp21
 70
     0
102
RTVSPropertyOp22
 70
     0
102
RTVSPropertyOp23
 70
     0
102
RTVSPropertyOp24
 70
     0
102
RTVSPropertyOp25
 70
     0
102
RTVSPropertyOp26
 70
     0
102
RTVSPropertyOp27
 70
     0
102
RTVSPropertyOp28
 70
     0
102
RTVSPropertyOp29
 70
     0
102
RTVSPropertyOp30
 70
     0
102
RTVSPropertyOp31
 70
     0
102
RTVSPropertyOp32
 70
     0
  0
XRECORD
  5
16C
102
{ACAD_REACTORS
330
16B
102
}
330
16B
100
AcDbXrecord
280
     1
102
RTVSPropertyOp0
 70
     1
102
RTVSPropertyOp1
 70
     1
102
RTVSPropertyOp2
 70
     1
102
RTVSPropertyOp3
 70
     1
102
RTVSPropertyOp4
 70
     1
102
RTVSPropertyOp5
 70
     1
102
RTVSPropertyOp6
 70
     1
102
RTVSPropertyOp7
 70
     1
102
RTVSPropertyOp8
 70
     1
102
RTVSPropertyOp9
 70
     1
102
RTVSPropertyOp10
 70
     1
102
RTVSPropertyOp11
 70
     1
102
RTVSPropertyOp12
 70
     1
102
RTVSPropertyOp13
 70
     1
102
RTVSPropertyOp14
 70
     1
102
RTVSPropertyOp15
 70
     1
102
RTVSPropertyOp16
 70
     1
102
RTVSPropertyOp17
 70
     1
102
RTVSPropertyOp18
 70
     1
102
RTVSPropertyOp19
 70
     1
102
RTVSPropertyOp20
 70
     1
102
RTVSPropertyOp21
 70
     1
102
RTVSPropertyOp22
 70
     1
102
RTVSPropertyOp23
 70
     1
102
RTVSPropertyOp24
 70
     1
102
RTVSPropertyOp25
 70
     1
102
RTVSPropertyOp26
 70
     1
102
RTVSPropertyOp27
 70
     1
102
RTVSPropertyOp28
 70
     1
102
RTVSPropertyOp29
 70
     1
102
RTVSPropertyOp30
 70
     1
102
RTVSPropertyOp31
 70
     1
102
RTVSPropertyOp32
 70
     1
  0
XRECORD
  5
188
102
{ACAD_REACTORS
330
187
102
}
330
187
100
AcDbXrecord
280
     1
102
RTVSPropertyOp0
 70
     1
102
RTVSPropertyOp1
 70
     1
102
RTVSPropertyOp2
 70
     1
102
RTVSPropertyOp3
 70
     1
102
RTVSPropertyOp4
 70
     1
102
RTVSPropertyOp5
 70
     1
102
RTVSPropertyOp6
 70
     1
102
RTVSPropertyOp7
 70
     1
102
RTVSPropertyOp8
 70
     1
102
RTVSPropertyOp9
 70
     1
102
RTVSPropertyOp10
 70
     1
102
RTVSPropertyOp11
 70
     1
102
RTVSPropertyOp12
 70
     1
102
RTVSPropertyOp13
 70
     1
102
RTVSPropertyOp14
 70
     1
102
RTVSPropertyOp15
 70
     1
102
RTVSPropertyOp16
 70
     1
102
RTVSPropertyOp17
 70
     1
102
RTVSPropertyOp18
 70
     1
102
RTVSPropertyOp19
 70
     1
102
RTVSPropertyOp20
 70
     1
102
RTVSPropertyOp21
 70
     1
102
RTVSPropertyOp22
 70
     1
102
RTVSPropertyOp23
 70
     1
102
RTVSPropertyOp24
 70
     1
102
RTVSPropertyOp25
 70
     1
102
RTVSPropertyOp26
 70
     1
102
RTVSPropertyOp27
 70
     1
102
RTVSPropertyOp28
 70
     1
102
RTVSPropertyOp29
 70
     1
102
RTVSPropertyOp30
 70
     1
102
RTVSPropertyOp31
 70
     1
102
RTVSPropertyOp32
 70
     1
  0
XRECORD
  5
186
102
{ACAD_REACTORS
330
185
102
}
330
185
100
AcDbXrecord
280
     1
102
RTVSPropertyOp0
 70
     1
102
RTVSPropertyOp1
 70
     1
102
RTVSPropertyOp2
 70
     1
102
RTVSPropertyOp3
 70
     1
102
RTVSPropertyOp4
 70
     1
102
RTVSPropertyOp5
 70
     1
102
RTVSPropertyOp6
 70
     1
102
RTVSPropertyOp7
 70
     1
102
RTVSPropertyOp8
 70
     1
102
RTVSPropertyOp9
 70
     1
102
RTVSPropertyOp10
 70
     1
102
RTVSPropertyOp11
 70
     1
102
RTVSPropertyOp12
 70
     1
102
RTVSPropertyOp13
 70
     1
102
RTVSPropertyOp14
 70
     1
102
RTVSPropertyOp15
 70
     1
102
RTVSPropertyOp16
 70
     1
102
RTVSPropertyOp17
 70
     1
102
RTVSPropertyOp18
 70
     1
102
RTVSPropertyOp19
 70
     1
102
RTVSPropertyOp20
 70
     1
102
RTVSPropertyOp21
 70
     1
102
RTVSPropertyOp22
 70
     1
102
RTVSPropertyOp23
 70
     1
102
RTVSPropertyOp24
 70
     1
102
RTVSPropertyOp25
 70
     1
102
RTVSPropertyOp26
 70
     1
102
RTVSPropertyOp27
 70
     1
102
RTVSPropertyOp28
 70
     1
102
RTVSPropertyOp29
 70
     1
102
RTVSPropertyOp30
 70
     1
102
RTVSPropertyOp31
 70
     1
102
RTVSPropertyOp32
 70
     1
  0
XRECORD
  5
180
102
{ACAD_REACTORS
330
17F
102
}
330
17F
100
AcDbXrecord
280
     1
102
RTVSPropertyOp0
 70
     1
102
RTVSPropertyOp1
 70
     1
102
RTVSPropertyOp2
 70
     1
102
RTVSPropertyOp3
 70
     1
102
RTVSPropertyOp4
 70
     1
102
RTVSPropertyOp5
 70
     1
102
RTVSPropertyOp6
 70
     1
102
RTVSPropertyOp7
 70
     1
102
RTVSPropertyOp8
 70
     1
102
RTVSPropertyOp9
 70
     1
102
RTVSPropertyOp10
 70
     1
102
RTVSPropertyOp11
 70
     1
102
RTVSPropertyOp12
 70
     1
102
RTVSPropertyOp13
 70
     1
102
RTVSPropertyOp14
 70
     1
102
RTVSPropertyOp15
 70
     1
102
RTVSPropertyOp16
 70
     1
102
RTVSPropertyOp17
 70
     1
102
RTVSPropertyOp18
 70
     1
102
RTVSPropertyOp19
 70
     1
102
RTVSPropertyOp20
 70
     1
102
RTVSPropertyOp21
 70
     1
102
RTVSPropertyOp22
 70
     1
102
RTVSPropertyOp23
 70
     1
102
RTVSPropertyOp24
 70
     1
102
RTVSPropertyOp25
 70
     1
102
RTVSPropertyOp26
 70
     1
102
RTVSPropertyOp27
 70
     1
102
RTVSPropertyOp28
 70
     1
102
RTVSPropertyOp29
 70
     1
102
RTVSPropertyOp30
 70
     1
102
RTVSPropertyOp31
 70
     1
102
RTVSPropertyOp32
 70
     1
  0
XRECORD
  5
182
102
{ACAD_REACTORS
330
181
102
}
330
181
100
AcDbXrecord
280
     1
102
RTVSPropertyOp0
 70
     1
102
RTVSPropertyOp1
 70
     1
102
RTVSPropertyOp2
 70
     1
102
RTVSPropertyOp3
 70
     1
102
RTVSPropertyOp4
 70
     1
102
RTVSPropertyOp5
 70
     1
102
RTVSPropertyOp6
 70
     1
102
RTVSPropertyOp7
 70
     1
102
RTVSPropertyOp8
 70
     1
102
RTVSPropertyOp9
 70
     1
102
RTVSPropertyOp10
 70
     1
102
RTVSPropertyOp11
 70
     1
102
RTVSPropertyOp12
 70
     1
102
RTVSPropertyOp13
 70
     1
102
RTVSPropertyOp14
 70
     1
102
RTVSPropertyOp15
 70
     1
102
RTVSPropertyOp16
 70
     1
102
RTVSPropertyOp17
 70
     1
102
RTVSPropertyOp18
 70
     1
102
RTVSPropertyOp19
 70
     1
102
RTVSPropertyOp20
 70
     1
102
RTVSPropertyOp21
 70
     1
102
RTVSPropertyOp22
 70
     1
102
RTVSPropertyOp23
 70
     1
102
RTVSPropertyOp24
 70
     1
102
RTVSPropertyOp25
 70
     1
102
RTVSPropertyOp26
 70
     1
102
RTVSPropertyOp27
 70
     1
102
RTVSPropertyOp28
 70
     1
102
RTVSPropertyOp29
 70
     1
102
RTVSPropertyOp30
 70
     1
102
RTVSPropertyOp31
 70
     1
102
RTVSPropertyOp32
 70
     1
  0
XRECORD
  5
174
102
{ACAD_REACTORS
330
173
102
}
330
173
100
AcDbXrecord
280
     1
102
RTVSPropertyOp0
 70
     1
102
RTVSPropertyOp1
 70
     1
102
RTVSPropertyOp2
 70
     1
102
RTVSPropertyOp3
 70
     1
102
RTVSPropertyOp4
 70
     1
102
RTVSPropertyOp5
 70
     1
102
RTVSPropertyOp6
 70
     1
102
RTVSPropertyOp7
 70
     1
102
RTVSPropertyOp8
 70
     1
102
RTVSPropertyOp9
 70
     1
102
RTVSPropertyOp10
 70
     1
102
RTVSPropertyOp11
 70
     1
102
RTVSPropertyOp12
 70
     1
102
RTVSPropertyOp13
 70
     1
102
RTVSPropertyOp14
 70
     1
102
RTVSPropertyOp15
 70
     1
102
RTVSPropertyOp16
 70
     1
102
RTVSPropertyOp17
 70
     1
102
RTVSPropertyOp18
 70
     1
102
RTVSPropertyOp19
 70
     1
102
RTVSPropertyOp20
 70
     1
102
RTVSPropertyOp21
 70
     1
102
RTVSPropertyOp22
 70
     1
102
RTVSPropertyOp23
 70
     1
102
RTVSPropertyOp24
 70
     1
102
RTVSPropertyOp25
 70
     1
102
RTVSPropertyOp26
 70
     1
102
RTVSPropertyOp27
 70
     1
102
RTVSPropertyOp28
 70
     1
102
RTVSPropertyOp29
 70
     1
102
RTVSPropertyOp30
 70
     1
102
RTVSPropertyOp31
 70
     1
102
RTVSPropertyOp32
 70
     1
  0
XRECORD
  5
17C
102
{ACAD_REACTORS
330
17B
102
}
330
17B
100
AcDbXrecord
280
     1
102
RTVSPropertyOp0
 70
     1
102
RTVSPropertyOp1
 70
     1
102
RTVSPropertyOp2
 70
     1
102
RTVSPropertyOp3
 70
     1
102
RTVSPropertyOp4
 70
     1
102
RTVSPropertyOp5
 70
     1
102
RTVSPropertyOp6
 70
     1
102
RTVSPropertyOp7
 70
     1
102
RTVSPropertyOp8
 70
     1
102
RTVSPropertyOp9
 70
     1
102
RTVSPropertyOp10
 70
     1
102
RTVSPropertyOp11
 70
     1
102
RTVSPropertyOp12
 70
     1
102
RTVSPropertyOp13
 70
     1
102
RTVSPropertyOp14
 70
     1
102
RTVSPropertyOp15
 70
     1
102
RTVSPropertyOp16
 70
     1
102
RTVSPropertyOp17
 70
     1
102
RTVSPropertyOp18
 70
     1
102
RTVSPropertyOp19
 70
     1
102
RTVSPropertyOp20
 70
     1
102
RTVSPropertyOp21
 70
     1
102
RTVSPropertyOp22
 70
     1
102
RTVSPropertyOp23
 70
     1
102
RTVSPropertyOp24
 70
     1
102
RTVSPropertyOp25
 70
     1
102
RTVSPropertyOp26
 70
     1
102
RTVSPropertyOp27
 70
     1
102
RTVSPropertyOp28
 70
     1
102
RTVSPropertyOp29
 70
     1
102
RTVSPropertyOp30
 70
     1
102
RTVSPropertyOp31
 70
     1
102
RTVSPropertyOp32
 70
     1
  0
XRECORD
  5
184
102
{ACAD_REACTORS
330
183
102
}
330
183
100
AcDbXrecord
280
     1
102
RTVSPropertyOp0
 70
     1
102
RTVSPropertyOp1
 70
     1
102
RTVSPropertyOp2
 70
     1
102
RTVSPropertyOp3
 70
     1
102
RTVSPropertyOp4
 70
     1
102
RTVSPropertyOp5
 70
     1
102
RTVSPropertyOp6
 70
     1
102
RTVSPropertyOp7
 70
     1
102
RTVSPropertyOp8
 70
     1
102
RTVSPropertyOp9
 70
     1
102
RTVSPropertyOp10
 70
     1
102
RTVSPropertyOp11
 70
     1
102
RTVSPropertyOp12
 70
     1
102
RTVSPropertyOp13
 70
     1
102
RTVSPropertyOp14
 70
     1
102
RTVSPropertyOp15
 70
     1
102
RTVSPropertyOp16
 70
     1
102
RTVSPropertyOp17
 70
     1
102
RTVSPropertyOp18
 70
     1
102
RTVSPropertyOp19
 70
     1
102
RTVSPropertyOp20
 70
     1
102
RTVSPropertyOp21
 70
     1
102
RTVSPropertyOp22
 70
     1
102
RTVSPropertyOp23
 70
     1
102
RTVSPropertyOp24
 70
     1
102
RTVSPropertyOp25
 70
     1
102
RTVSPropertyOp26
 70
     1
102
RTVSPropertyOp27
 70
     1
102
RTVSPropertyOp28
 70
     1
102
RTVSPropertyOp29
 70
     1
102
RTVSPropertyOp30
 70
     1
102
RTVSPropertyOp31
 70
     1
102
RTVSPropertyOp32
 70
     1
  0
ENDSEC
  0
EOF
